  0
SECTION
  2
HEADER
  9
$ACADVER
  1
AC1015
  9
$ACADMAINTVER
 70
    13
  9
$DWGCODEPAGE
  3
ANSI_1252
  9
$INSBASE
 10
0.0
 20
0.0
 30
0.0
  9
$EXTMIN
 10
0.093017606172964
 20
0.1549072476975937
 30
-0.0000000000112498
  9
$EXTMAX
 10
0.1378784320991002
 20
0.1885528671421959
 30
0.0000000000002956
  9
$LIMMIN
 10
0.0
 20
0.0
  9
$LIMMAX
 10
12.0
 20
9.0
  9
$ORTHOMODE
 70
     0
  9
$REGENMODE
 70
     1
  9
$FILLMODE
 70
     1
  9
$QTEXTMODE
 70
     0
  9
$MIRRTEXT
 70
     1
  9
$LTSCALE
 40
1.0
  9
$ATTMODE
 70
     1
  9
$TEXTSIZE
 40
0.2
  9
$TRACEWID
 40
0.05
  9
$TEXTSTYLE
  7
Standard
  9
$CLAYER
  8
1
  9
$CELTYPE
  6
CONTINUOUS
  9
$CECOLOR
 62
     9
  9
$CELTSCALE
 40
1.0
  9
$DISPSILH
 70
     0
  9
$DIMSCALE
 40
1.0
  9
$DIMASZ
 40
0.18
  9
$DIMEXO
 40
0.0625
  9
$DIMDLI
 40
0.38
  9
$DIMRND
 40
0.0
  9
$DIMDLE
 40
0.0
  9
$DIMEXE
 40
0.18
  9
$DIMTP
 40
0.0
  9
$DIMTM
 40
0.0
  9
$DIMTXT
 40
0.18
  9
$DIMCEN
 40
0.09
  9
$DIMTSZ
 40
0.0
  9
$DIMTOL
 70
     0
  9
$DIMLIM
 70
     0
  9
$DIMTIH
 70
     1
  9
$DIMTOH
 70
     1
  9
$DIMSE1
 70
     0
  9
$DIMSE2
 70
     0
  9
$DIMTAD
 70
     0
  9
$DIMZIN
 70
     0
  9
$DIMBLK
  1

  9
$DIMASO
 70
     1
  9
$DIMSHO
 70
     1
  9
$DIMPOST
  1

  9
$DIMAPOST
  1

  9
$DIMALT
 70
     0
  9
$DIMALTD
 70
     2
  9
$DIMALTF
 40
25.4
  9
$DIMLFAC
 40
1.0
  9
$DIMTOFL
 70
     0
  9
$DIMTVP
 40
0.0
  9
$DIMTIX
 70
     0
  9
$DIMSOXD
 70
     0
  9
$DIMSAH
 70
     0
  9
$DIMBLK1
  1

  9
$DIMBLK2
  1

  9
$DIMSTYLE
  2
Standard
  9
$DIMCLRD
 70
     0
  9
$DIMCLRE
 70
     0
  9
$DIMCLRT
 70
     0
  9
$DIMTFAC
 40
1.0
  9
$DIMGAP
 40
0.09
  9
$DIMJUST
 70
     0
  9
$DIMSD1
 70
     0
  9
$DIMSD2
 70
     0
  9
$DIMTOLJ
 70
     1
  9
$DIMTZIN
 70
     0
  9
$DIMALTZ
 70
     0
  9
$DIMALTTZ
 70
     0
  9
$DIMUPT
 70
     0
  9
$DIMDEC
 70
     4
  9
$DIMTDEC
 70
     4
  9
$DIMALTU
 70
     2
  9
$DIMALTTD
 70
     2
  9
$DIMTXSTY
  7
Standard
  9
$DIMAUNIT
 70
     0
  9
$DIMADEC
 70
     0
  9
$DIMALTRND
 40
0.0
  9
$DIMAZIN
 70
     0
  9
$DIMDSEP
 70
    46
  9
$DIMATFIT
 70
     3
  9
$DIMFRAC
 70
     0
  9
$DIMLDRBLK
  1

  9
$DIMLUNIT
 70
     2
  9
$DIMLWD
 70
    -2
  9
$DIMLWE
 70
    -2
  9
$DIMTMOVE
 70
     0
  9
$LUNITS
 70
     2
  9
$LUPREC
 70
     4
  9
$SKETCHINC
 40
0.1
  9
$FILLETRAD
 40
0.0
  9
$AUNITS
 70
     0
  9
$AUPREC
 70
     0
  9
$MENU
  1
.
  9
$ELEVATION
 40
0.0
  9
$PELEVATION
 40
0.0
  9
$THICKNESS
 40
0.0
  9
$LIMCHECK
 70
     0
  9
$CHAMFERA
 40
0.0
  9
$CHAMFERB
 40
0.0
  9
$CHAMFERC
 40
0.0
  9
$CHAMFERD
 40
0.0
  9
$SKPOLY
 70
     0
  9
$TDCREATE
 40
2451810.432854166
  9
$TDUCREATE
 40
2451810.349520833
  9
$TDUPDATE
 40
2452548.484071053
  9
$TDUUPDATE
 40
2452548.400737720
  9
$TDINDWG
 40
0.0122966435
  9
$TDUSRTIMER
 40
0.0122966435
  9
$USRTIMER
 70
     1
  9
$ANGBASE
 50
0.0
  9
$ANGDIR
 70
     0
  9
$PDMODE
 70
     0
  9
$PDSIZE
 40
0.0
  9
$PLINEWID
 40
0.0
  9
$SPLFRAME
 70
     0
  9
$SPLINETYPE
 70
     6
  9
$SPLINESEGS
 70
     8
  9
$HANDSEED
  5
9A5
  9
$SURFTAB1
 70
     6
  9
$SURFTAB2
 70
     6
  9
$SURFTYPE
 70
     6
  9
$SURFU
 70
     6
  9
$SURFV
 70
     6
  9
$UCSBASE
  2

  9
$UCSNAME
  2

  9
$UCSORG
 10
0.0
 20
0.0
 30
0.0
  9
$UCSXDIR
 10
1.0
 20
0.0
 30
0.0
  9
$UCSYDIR
 10
0.0
 20
1.0
 30
0.0
  9
$UCSORTHOREF
  2

  9
$UCSORTHOVIEW
 70
     0
  9
$UCSORGTOP
 10
0.0
 20
0.0
 30
0.0
  9
$UCSORGBOTTOM
 10
0.0
 20
0.0
 30
0.0
  9
$UCSORGLEFT
 10
0.0
 20
0.0
 30
0.0
  9
$UCSORGRIGHT
 10
0.0
 20
0.0
 30
0.0
  9
$UCSORGFRONT
 10
0.0
 20
0.0
 30
0.0
  9
$UCSORGBACK
 10
0.0
 20
0.0
 30
0.0
  9
$PUCSBASE
  2

  9
$PUCSNAME
  2

  9
$PUCSORG
 10
0.0
 20
0.0
 30
0.0
  9
$PUCSXDIR
 10
1.0
 20
0.0
 30
0.0
  9
$PUCSYDIR
 10
0.0
 20
1.0
 30
0.0
  9
$PUCSORTHOREF
  2

  9
$PUCSORTHOVIEW
 70
     0
  9
$PUCSORGTOP
 10
0.0
 20
0.0
 30
0.0
  9
$PUCSORGBOTTOM
 10
0.0
 20
0.0
 30
0.0
  9
$PUCSORGLEFT
 10
0.0
 20
0.0
 30
0.0
  9
$PUCSORGRIGHT
 10
0.0
 20
0.0
 30
0.0
  9
$PUCSORGFRONT
 10
0.0
 20
0.0
 30
0.0
  9
$PUCSORGBACK
 10
0.0
 20
0.0
 30
0.0
  9
$USERI1
 70
     0
  9
$USERI2
 70
     0
  9
$USERI3
 70
     0
  9
$USERI4
 70
     0
  9
$USERI5
 70
     0
  9
$USERR1
 40
0.0
  9
$USERR2
 40
0.0
  9
$USERR3
 40
0.0
  9
$USERR4
 40
0.0
  9
$USERR5
 40
0.0
  9
$WORLDVIEW
 70
     1
  9
$SHADEDGE
 70
     3
  9
$SHADEDIF
 70
    70
  9
$TILEMODE
 70
     1
  9
$MAXACTVP
 70
    64
  9
$PINSBASE
 10
0.0
 20
0.0
 30
0.0
  9
$PLIMCHECK
 70
     0
  9
$PEXTMIN
 10
1.000000000000000E+20
 20
1.000000000000000E+20
 30
1.000000000000000E+20
  9
$PEXTMAX
 10
-1.000000000000000E+20
 20
-1.000000000000000E+20
 30
-1.000000000000000E+20
  9
$PLIMMIN
 10
0.0
 20
0.0
  9
$PLIMMAX
 10
12.0
 20
9.0
  9
$UNITMODE
 70
     0
  9
$VISRETAIN
 70
     1
  9
$PLINEGEN
 70
     0
  9
$PSLTSCALE
 70
     1
  9
$TREEDEPTH
 70
  3020
  9
$CMLSTYLE
  2
Standard
  9
$CMLJUST
 70
     0
  9
$CMLSCALE
 40
1.0
  9
$PROXYGRAPHICS
 70
     1
  9
$MEASUREMENT
 70
     0
  9
$CELWEIGHT
370
    -1
  9
$ENDCAPS
280
     0
  9
$JOINSTYLE
280
     0
  9
$LWDISPLAY
290
     1
  9
$INSUNITS
 70
     0
  9
$HYPERLINKBASE
  1

  9
$STYLESHEET
  1

  9
$XEDIT
290
     1
  9
$CEPSNTYPE
380
     0
  9
$PSTYLEMODE
290
     1
  9
$FINGERPRINTGUID
  2
{FCAAB2B9-906C-11D4-85D5-ABE84B2BB133}
  9
$VERSIONGUID
  2
{B8F7E724-4DB5-4450-9403-7FC567B04787}
  9
$EXTNAMES
290
     1
  9
$PSVPSCALE
 40
0.0
  9
$OLESTARTUP
290
     0
  0
ENDSEC
  0
SECTION
  2
CLASSES
  0
CLASS
  1
ACDBDICTIONARYWDFLT
  2
AcDbDictionaryWithDefault
  3
AutoCAD 2000
 90
        0
280
     0
281
     0
  0
CLASS
  1
ACDBPLACEHOLDER
  2
AcDbPlaceHolder
  3
AutoCAD 2000
 90
        0
280
     0
281
     0
  0
CLASS
  1
LAYOUT
  2
AcDbLayout
  3
AutoCAD 2000
 90
        0
280
     0
281
     0
  0
CLASS
  1
DICTIONARYVAR
  2
AcDbDictionaryVar
  3
AutoCAD 2000
 90
        0
280
     0
281
     0
  0
ENDSEC
  0
SECTION
  2
TABLES
  0
TABLE
  2
VPORT
  5
8
330
0
100
AcDbSymbolTable
 70
     2
  0
VPORT
  5
9A4
330
8
100
AcDbSymbolTableRecord
100
AcDbViewportTableRecord
  2
*Active
 70
     0
 10
0.0
 20
0.0
 11
1.0
 21
1.0
 12
0.1154480191360321
 22
0.1717300574198948
 13
0.0
 23
0.0
 14
1.0
 24
1.0
 15
0.0
 25
0.0
 16
0.0
 26
0.0
 36
1.0
 17
0.0
 27
0.0
 37
0.0
 40
0.0338879648427626
 41
1.448317307692307
 42
50.0
 43
0.0
 44
0.0
 50
0.0
 51
0.0
 71
     0
 72
   100
 73
     1
 74
     0
 75
     0
 76
     0
 77
     0
 78
     0
281
     0
 65
     1
110
0.0
120
0.0
130
0.0
111
1.0
121
0.0
131
0.0
112
0.0
122
1.0
132
0.0
 79
     0
146
0.0
  0
ENDTAB
  0
TABLE
  2
LTYPE
  5
5
330
0
100
AcDbSymbolTable
 70
     9
  0
LTYPE
  5
13
330
5
100
AcDbSymbolTableRecord
100
AcDbLinetypeTableRecord
  2
ByBlock
 70
     0
  3

 72
    65
 73
     0
 40
0.0
  0
LTYPE
  5
14
330
5
100
AcDbSymbolTableRecord
100
AcDbLinetypeTableRecord
  2
ByLayer
 70
     0
  3

 72
    65
 73
     0
 40
0.0
  0
LTYPE
  5
15
330
5
100
AcDbSymbolTableRecord
100
AcDbLinetypeTableRecord
  2
CONTINUOUS
 70
     0
  3
Solid line
 72
    65
 73
     0
 40
0.0
  0
LTYPE
  5
23
330
5
100
AcDbSymbolTableRecord
100
AcDbLinetypeTableRecord
  2
DASHED
 70
     0
  3
__ __
 72
    65
 73
     2
 40
0.75
 49
0.5
 74
     0
 49
-0.25
 74
     0
  0
LTYPE
  5
24
330
5
100
AcDbSymbolTableRecord
100
AcDbLinetypeTableRecord
  2
CENTER
 70
     0
  3
____ _ ____
 72
    65
 73
     4
 40
2.0
 49
1.25
 74
     0
 49
-0.25
 74
     0
 49
0.25
 74
     0
 49
-0.25
 74
     0
  0
LTYPE
  5
25
330
5
100
AcDbSymbolTableRecord
100
AcDbLinetypeTableRecord
  2
DOT
 70
     0
  3
. . .
 72
    65
 73
     2
 40
0.375
 49
0.25
 74
     0
 49
-0.125
 74
     0
  0
LTYPE
  5
26
330
5
100
AcDbSymbolTableRecord
100
AcDbLinetypeTableRecord
  2
DIVIDE
 70
     0
  3
. . .
 72
    65
 73
     6
 40
1.25
 49
0.5
 74
     0
 49
-0.25
 74
     0
 49
0.0
 74
     0
 49
-0.25
 74
     0
 49
0.0
 74
     0
 49
-0.25
 74
     0
  0
LTYPE
  5
27
330
5
100
AcDbSymbolTableRecord
100
AcDbLinetypeTableRecord
  2
BORDER
 70
     0
  3
. . .
 72
    65
 73
     6
 40
1.75
 49
0.5
 74
     0
 49
-0.25
 74
     0
 49
0.5
 74
     0
 49
-0.25
 74
     0
 49
0.0
 74
     0
 49
-0.25
 74
     0
  0
LTYPE
  5
28
330
5
100
AcDbSymbolTableRecord
100
AcDbLinetypeTableRecord
  2
DASHDOT
 70
     0
  3
. . .
 72
    65
 73
     4
 40
1.0
 49
0.5
 74
     0
 49
-0.25
 74
     0
 49
0.0
 74
     0
 49
-0.25
 74
     0
  0
LTYPE
  5
29
330
5
100
AcDbSymbolTableRecord
100
AcDbLinetypeTableRecord
  2
PHANTOM
 70
     0
  3
. . .
 72
    65
 73
     6
 40
2.5
 49
1.25
 74
     0
 49
-0.25
 74
     0
 49
0.25
 74
     0
 49
-0.25
 74
     0
 49
0.25
 74
     0
 49
-0.25
 74
     0
  0
LTYPE
  5
2A
330
5
100
AcDbSymbolTableRecord
100
AcDbLinetypeTableRecord
  2
HIDDEN
 70
     0
  3
. . .
 72
    65
 73
     2
 40
0.375
 49
0.25
 74
     0
 49
-0.125
 74
     0
  0
ENDTAB
  0
TABLE
  2
LAYER
  5
2
330
0
100
AcDbSymbolTable
 70
     3
  0
LAYER
  5
10
330
2
100
AcDbSymbolTableRecord
100
AcDbLayerTableRecord
  2
0
 70
     0
 62
     7
  6
CONTINUOUS
370
    -3
390
F
  0
LAYER
  5
22
330
2
100
AcDbSymbolTableRecord
100
AcDbLayerTableRecord
  2
1
 70
     0
 62
     7
  6
CONTINUOUS
370
    -3
390
F
  0
LAYER
  5
2D
330
2
100
AcDbSymbolTableRecord
100
AcDbLayerTableRecord
  2
LY1
 70
     0
 62
     7
  6
CONTINUOUS
370
    -3
390
F
  0
ENDTAB
  0
TABLE
  2
STYLE
  5
3
330
0
100
AcDbSymbolTable
 70
     1
  0
STYLE
  5
11
330
3
100
AcDbSymbolTableRecord
100
AcDbTextStyleTableRecord
  2
Standard
 70
     0
 40
0.0
 41
1.0
 50
0.0
 71
     0
 42
0.2
  3
txt
  4

  0
ENDTAB
  0
TABLE
  2
VIEW
  5
6
330
0
100
AcDbSymbolTable
 70
     0
  0
ENDTAB
  0
TABLE
  2
UCS
  5
7
330
0
100
AcDbSymbolTable
 70
     0
  0
ENDTAB
  0
TABLE
  2
APPID
  5
9
330
0
100
AcDbSymbolTable
 70
     1
  0
APPID
  5
12
330
9
100
AcDbSymbolTableRecord
100
AcDbRegAppTableRecord
  2
ACAD
 70
     0
  0
ENDTAB
  0
TABLE
  2
DIMSTYLE
  5
A
330
0
100
AcDbSymbolTable
 70
     1
100
AcDbDimStyleTable
 71
     0
  0
DIMSTYLE
105
472
330
A
100
AcDbSymbolTableRecord
100
AcDbDimStyleTableRecord
  2
Standard
 70
     0
340
11
  0
ENDTAB
  0
TABLE
  2
BLOCK_RECORD
  5
1
330
0
100
AcDbSymbolTable
 70
     0
  0
BLOCK_RECORD
  5
1E
330
1
100
AcDbSymbolTableRecord
100
AcDbBlockTableRecord
  2
*Model_Space
340
21
  0
BLOCK_RECORD
  5
1A
330
1
100
AcDbSymbolTableRecord
100
AcDbBlockTableRecord
  2
*Paper_Space
340
1D
  0
ENDTAB
  0
ENDSEC
  0
SECTION
  2
BLOCKS
  0
BLOCK
  5
1F
330
1E
100
AcDbEntity
  8
0
100
AcDbBlockBegin
  2
*Model_Space
 70
     0
 10
0.0
 20
0.0
 30
0.0
  3
*Model_Space
  1

  0
ENDBLK
  5
20
330
1E
100
AcDbEntity
  8
0
100
AcDbBlockEnd
  0
BLOCK
  5
1B
330
1A
100
AcDbEntity
 67
     1
  8
0
100
AcDbBlockBegin
  2
*Paper_Space
 70
     0
 10
0.0
 20
0.0
 30
0.0
  3
*Paper_Space
  1

  0
ENDBLK
  5
1C
330
1A
100
AcDbEntity
 67
     1
  8
0
100
AcDbBlockEnd
  0
ENDSEC
  0
SECTION
  2
ENTITIES
  0
TEXT
  5
35
330
1E
100
AcDbEntity
  8
LY1
 62
     7
100
AcDbText
 10
0.1001632104
 20
0.18288855448
 30
0.0
 40
0.00146996279
  1
OUT
 41
0.8
100
AcDbText
  0
LWPOLYLINE
  5
36
330
1E
100
AcDbEntity
  8
LY1
  6
Continuous
 62
     7
100
AcDbPolyline
 90
       13
 70
     0
 43
0.0
 10
0.10238722083
 20
0.17014303618
 10
0.10238722083
 20
0.17011803588
 10
0.10238722083
 20
0.17009303557
 10
0.10238722083
 20
0.17009303557
 10
0.10241222114
 20
0.17009303557
 10
0.10243722144
 20
0.17009303557
 10
0.10243722144
 20
0.17009303557
 10
0.10243722144
 20
0.17011803588
 10
0.10243722144
 20
0.17014303618
 10
0.10243722144
 20
0.17014303618
 10
0.10241222114
 20
0.17014303618
 10
0.10238722083
 20
0.17014303618
 10
0.10238722083
 20
0.17014303618
  0
TEXT
  5
45
330
1E
100
AcDbEntity
  8
LY1
 62
     7
100
AcDbText
 10
0.10858408569
 20
0.18293485946
 30
0.0
 40
0.0013164682
  1
+12V
 41
0.8
100
AcDbText
  0
LWPOLYLINE
  5
46
330
1E
100
AcDbEntity
  8
LY1
  6
Continuous
 62
     7
100
AcDbPolyline
 90
        6
 70
     0
 43
0.0
 10
0.10227926013
 20
0.170868045
 10
0.10227926013
 20
0.17011803588
 10
0.10227926013
 20
0.16936802676
 10
0.10327927229
 20
0.16936802676
 10
0.10327927229
 20
0.170868045
 10
0.10227926013
 20
0.170868045
  0
LWPOLYLINE
  5
4E
102
{ACAD_REACTORS
330
4A8
102
}
330
1E
100
AcDbEntity
  8
LY1
  6
Continuous
 62
     7
100
AcDbPolyline
 90
        6
 70
     0
 43
0.0
 10
0.10639328914
 20
0.16936802676
 10
0.10639328914
 20
0.17011803588
 10
0.10639328914
 20
0.170868045
 10
0.10539327698
 20
0.170868045
 10
0.10539327698
 20
0.16936802676
 10
0.10639328914
 20
0.16936802676
  0
LWPOLYLINE
  5
56
330
1E
100
AcDbEntity
  8
LY1
  6
Continuous
 62
     7
100
AcDbPolyline
 90
        5
 70
     0
 43
0.0
 10
0.09362816369
 20
0.15551268613
 10
0.13367633486
 20
0.15551268613
 10
0.13367633486
 20
0.18498968787
 10
0.09362816369
 20
0.18498968787
 10
0.09362816369
 20
0.15551268613
  0
LWPOLYLINE
  5
5D
102
{ACAD_REACTORS
330
4A8
102
}
330
1E
100
AcDbEntity
  8
LY1
  6
Continuous
 62
     7
100
AcDbPolyline
 90
        6
 70
     0
 43
0.0
 10
0.11553998564
 20
0.18136455537
 10
0.11553998564
 20
0.18211456449
 10
0.11553998564
 20
0.18286457361
 10
0.11451497318
 20
0.18286457361
 10
0.11451497318
 20
0.18136455537
 10
0.11553998564
 20
0.18136455537
  0
LWPOLYLINE
  5
65
102
{ACAD_REACTORS
330
4A8
102
}
330
1E
100
AcDbEntity
  8
LY1
  6
Continuous
 62
     7
100
AcDbPolyline
 90
        6
 70
     0
 43
0.0
 10
0.11552552064
 20
0.18286457361
 10
0.11552552064
 20
0.18211456449
 10
0.11552552064
 20
0.18136455537
 10
0.1165255328
 20
0.18136455537
 10
0.1165255328
 20
0.18286457361
 10
0.11552552064
 20
0.18286457361
  0
LWPOLYLINE
  5
6D
102
{ACAD_REACTORS
330
574
330
99E
102
}
330
1E
100
AcDbEntity
  8
LY1
  6
Continuous
 62
     7
100
AcDbPolyline
 90
        6
 70
     0
 43
0.0
 10
0.11975057202
 20
0.18136455537
 10
0.11975057202
 20
0.18211456449
 10
0.11975057202
 20
0.18286457361
 10
0.11872555955
 20
0.18286457361
 10
0.11872555955
 20
0.18136455537
 10
0.11975057202
 20
0.18136455537
  0
LWPOLYLINE
  5
75
102
{ACAD_REACTORS
330
574
330
99E
102
}
330
1E
100
AcDbEntity
  8
LY1
  6
Continuous
 62
     7
100
AcDbPolyline
 90
        6
 70
     0
 43
0.0
 10
0.11973610701
 20
0.18286457361
 10
0.11973610701
 20
0.18211456449
 10
0.11973610701
 20
0.18136455537
 10
0.12073611917
 20
0.18136455537
 10
0.12073611917
 20
0.18286457361
 10
0.11973610701
 20
0.18286457361
  0
LWPOLYLINE
  5
7D
102
{ACAD_REACTORS
330
4A8
330
574
330
6F9
102
}
330
1E
100
AcDbEntity
  8
LY1
  6
Continuous
 62
     7
100
AcDbPolyline
 90
        6
 70
     0
 43
0.0
 10
0.12396115839
 20
0.18136455537
 10
0.12396115839
 20
0.18211456449
 10
0.12396115839
 20
0.18286457361
 10
0.12293614592
 20
0.18286457361
 10
0.12293614592
 20
0.18136455537
 10
0.12396115839
 20
0.18136455537
  0
LWPOLYLINE
  5
85
102
{ACAD_REACTORS
330
47E
330
4A8
102
}
330
1E
100
AcDbEntity
  8
LY1
  6
Continuous
 62
     7
100
AcDbPolyline
 90
        6
 70
     0
 43
0.0
 10
0.11553998564
 20
0.18225404174
 10
0.11553998564
 20
0.18300405086
 10
0.11553998564
 20
0.18375405998
 10
0.11451497318
 20
0.18375405998
 10
0.11451497318
 20
0.18225404174
 10
0.11553998564
 20
0.18225404174
  0
LWPOLYLINE
  5
8D
102
{ACAD_REACTORS
330
4A8
102
}
330
1E
100
AcDbEntity
  8
LY1
  6
Continuous
 62
     7
100
AcDbPolyline
 90
        6
 70
     0
 43
0.0
 10
0.11552552064
 20
0.18375405998
 10
0.11552552064
 20
0.18300405086
 10
0.11552552064
 20
0.18225404174
 10
0.1165255328
 20
0.18225404174
 10
0.1165255328
 20
0.18375405998
 10
0.11552552064
 20
0.18375405998
  0
LWPOLYLINE
  5
95
102
{ACAD_REACTORS
330
574
330
6F9
330
99E
102
}
330
1E
100
AcDbEntity
  8
LY1
  6
Continuous
 62
     7
100
AcDbPolyline
 90
        6
 70
     0
 43
0.0
 10
0.11975057202
 20
0.18225404174
 10
0.11975057202
 20
0.18300405086
 10
0.11975057202
 20
0.18375405998
 10
0.11872555955
 20
0.18375405998
 10
0.11872555955
 20
0.18225404174
 10
0.11975057202
 20
0.18225404174
  0
LWPOLYLINE
  5
9D
102
{ACAD_REACTORS
330
574
330
6F9
330
99E
102
}
330
1E
100
AcDbEntity
  8
LY1
  6
Continuous
 62
     7
100
AcDbPolyline
 90
        6
 70
     0
 43
0.0
 10
0.11973610701
 20
0.18375405998
 10
0.11973610701
 20
0.18300405086
 10
0.11973610701
 20
0.18225404174
 10
0.12073611917
 20
0.18225404174
 10
0.12073611917
 20
0.18375405998
 10
0.11973610701
 20
0.18375405998
  0
LWPOLYLINE
  5
A5
102
{ACAD_REACTORS
330
47E
330
4A8
330
574
330
6F9
102
}
330
1E
100
AcDbEntity
  8
LY1
  6
Continuous
 62
     7
100
AcDbPolyline
 90
        6
 70
     0
 43
0.0
 10
0.12396115839
 20
0.18225404174
 10
0.12396115839
 20
0.18300405086
 10
0.12396115839
 20
0.18375405998
 10
0.12293614592
 20
0.18375405998
 10
0.12293614592
 20
0.18225404174
 10
0.12396115839
 20
0.18225404174
  0
LWPOLYLINE
  5
AD
102
{ACAD_REACTORS
330
574
330
6F9
102
}
330
1E
100
AcDbEntity
  8
LY1
  6
Continuous
 62
     7
100
AcDbPolyline
 90
        6
 70
     0
 43
0.0
 10
0.12394669338
 20
0.18375405998
 10
0.12394669338
 20
0.18300405086
 10
0.12394669338
 20
0.18225404174
 10
0.12494670554
 20
0.18225404174
 10
0.12494670554
 20
0.18375405998
 10
0.12394669338
 20
0.18375405998
  0
LWPOLYLINE
  5
B5
102
{ACAD_REACTORS
330
574
330
99E
102
}
330
1E
100
AcDbEntity
  8
LY1
  6
Continuous
 62
     7
100
AcDbPolyline
 90
      101
 70
     0
 43
0.0
 10
0.12040458587
 20
0.18255035372
 10
0.12040458587
 20
0.18257535403
 10
0.12040458587
 20
0.18262535463
 10
0.12040458587
 20
0.18267535524
 10
0.12037958556
 20
0.18272535585
 10
0.12037958556
 20
0.18275035615
 10
0.12035458526
 20
0.18280035676
 10
0.12035458526
 20
0.18285035737
 10
0.12032958496
 20
0.18287535767
 10
0.12030458465
 20
0.18292535828
 10
0.12027958435
 20
0.18295035859
 10
0.12025458404
 20
0.18297535889
 10
0.12022958374
 20
0.1830253595
 10
0.12020458344
 20
0.1830503598
 10
0.12015458283
 20
0.18307536011
 10
0.12012958252
 20
0.18310036041
 10
0.12007958192
 20
0.18312536071
 10
0.12005458161
 20
0.18315036102
 10
0.120004581
 20
0.18317536132
 10
0.1199795807
 20
0.18320036163
 10
0.11992958009
 20
0.18320036163
 10
0.11987957948
 20
0.18322536193
 10
0.11985457918
 20
0.18322536193
 10
0.11980457857
 20
0.18322536193
 10
0.11975457796
 20
0.18325036223
 10
0.11970457736
 20
0.18325036223
 10
0.11965457675
 20
0.18325036223
 10
0.11962957644
 20
0.18322536193
 10
0.11957957584
 20
0.18322536193
 10
0.11952957523
 20
0.18322536193
 10
0.11950457492
 20
0.18320036163
 10
0.11945457432
 20
0.18320036163
 10
0.11940457371
 20
0.18317536132
 10
0.1193795734
 20
0.18315036102
 10
0.1193295728
 20
0.18312536071
 10
0.11930457249
 20
0.18310036041
 10
0.11925457188
 20
0.18307536011
 10
0.11922957158
 20
0.1830503598
 10
0.11920457128
 20
0.1830253595
 10
0.11917957097
 20
0.18297535889
 10
0.11912957036
 20
0.18295035859
 10
0.11910457006
 20
0.18292535828
 10
0.11910457006
 20
0.18287535767
 10
0.11907956976
 20
0.18285035737
 10
0.11905456945
 20
0.18280035676
 10
0.11902956915
 20
0.18275035615
 10
0.11902956915
 20
0.18272535585
 10
0.11902956915
 20
0.18267535524
 10
0.11900456884
 20
0.18262535463
 10
0.11900456884
 20
0.18257535403
 10
0.11900456884
 20
0.18255035372
 10
0.11900456884
 20
0.18250035311
 10
0.11900456884
 20
0.18245035251
 10
0.11902956915
 20
0.1824003519
 10
0.11902956915
 20
0.18237535159
 10
0.11902956915
 20
0.18232535099
 10
0.11905456945
 20
0.18227535038
 10
0.11907956976
 20
0.18225035007
 10
0.11910457006
 20
0.18220034947
 10
0.11910457006
 20
0.18215034886
 10
0.11912957036
 20
0.18212534855
 10
0.11917957097
 20
0.18210034825
 10
0.11920457128
 20
0.18205034764
 10
0.11922957158
 20
0.18202534734
 10
0.11925457188
 20
0.18200034703
 10
0.11930457249
 20
0.18197534673
 10
0.1193295728
 20
0.18195034643
 10
0.1193795734
 20
0.18192534612
 10
0.11940457371
 20
0.18190034582
 10
0.11945457432
 20
0.18187534551
 10
0.11950457492
 20
0.18187534551
 10
0.11952957523
 20
0.18185034521
 10
0.11957957584
 20
0.18185034521
 10
0.11962957644
 20
0.18185034521
 10
0.11965457675
 20
0.18182534491
 10
0.11970457736
 20
0.18182534491
 10
0.11975457796
 20
0.18182534491
 10
0.11980457857
 20
0.18185034521
 10
0.11985457918
 20
0.18185034521
 10
0.11987957948
 20
0.18185034521
 10
0.11992958009
 20
0.18187534551
 10
0.1199795807
 20
0.18187534551
 10
0.120004581
 20
0.18190034582
 10
0.12005458161
 20
0.18192534612
 10
0.12007958192
 20
0.18195034643
 10
0.12012958252
 20
0.18197534673
 10
0.12015458283
 20
0.18200034703
 10
0.12020458344
 20
0.18202534734
 10
0.12022958374
 20
0.18205034764
 10
0.12025458404
 20
0.18210034825
 10
0.12027958435
 20
0.18212534855
 10
0.12030458465
 20
0.18215034886
 10
0.12032958496
 20
0.18220034947
 10
0.12035458526
 20
0.18225035007
 10
0.12035458526
 20
0.18227535038
 10
0.12037958556
 20
0.18232535099
 10
0.12037958556
 20
0.18237535159
 10
0.12040458587
 20
0.1824003519
 10
0.12040458587
 20
0.18245035251
 10
0.12040458587
 20
0.18250035311
 10
0.12040458587
 20
0.18255035372
  0
LWPOLYLINE
  5
11C
102
{ACAD_REACTORS
330
4A8
330
574
330
6F9
102
}
330
1E
100
AcDbEntity
  8
LY1
  6
Continuous
 62
     7
100
AcDbPolyline
 90
        6
 70
     0
 43
0.0
 10
0.12394259587
 20
0.18286457361
 10
0.12394259587
 20
0.18211456449
 10
0.12394259587
 20
0.18136455537
 10
0.12494260803
 20
0.18136455537
 10
0.12494260803
 20
0.18286457361
 10
0.12394259587
 20
0.18286457361
  0
CIRCLE
  5
124
102
{ACAD_REACTORS
330
6F9
330
99E
102
}
330
1E
100
AcDbEntity
  8
LY1
 62
     7
100
AcDbCircle
 10
0.11971146935
 20
0.18254532423
 30
0.0
 40
0.00031194041
  0
TEXT
  5
125
330
1E
100
AcDbEntity
  8
LY1
 62
     7
100
AcDbText
 10
0.09516063125
 20
0.15686898188
 30
0.0
 40
0.00192544953
  1
MGF1302 2m Preamp YU1AW
 41
0.66666666667
100
AcDbText
  0
TEXT
  5
126
330
1E
100
AcDbEntity
  8
LY1
 62
     7
100
AcDbText
 10
0.10746122764
 20
0.18612921193
 30
0.0
 40
0.00192879864
  1
40 mm
 41
0.8
100
AcDbText
  0
TEXT
  5
127
330
1E
100
AcDbEntity
  8
LY1
 62
     7
100
AcDbText
 10
0.13706204982
 20
0.16577995842
 30
0.0
 40
0.00184629863
  1
29.5 mm
 50
90.0
 41
0.8
100
AcDbText
  0
LWPOLYLINE
  5
128
102
{ACAD_REACTORS
330
47C
330
574
102
}
330
1E
100
AcDbEntity
  8
LY1
  6
Continuous
 62
     7
100
AcDbPolyline
 90
        7
 70
     0
 43
0.0
 10
0.12811253365
 20
0.17845397247
 10
0.12823753517
 20
0.17845397247
 10
0.128387537
 20
0.17845397247
 10
0.128387537
 20
0.18147900925
 10
0.12823753517
 20
0.18147900925
 10
0.12811253365
 20
0.18147900925
 10
0.12811253365
 20
0.17845397247
  0
LWPOLYLINE
  5
131
102
{ACAD_REACTORS
330
47C
102
}
330
1E
100
AcDbEntity
  8
LY1
  6
Continuous
 62
     7
100
AcDbPolyline
 90
        7
 70
     0
 43
0.0
 10
0.12811253365
 20
0.16935386181
 10
0.12823753517
 20
0.16935386181
 10
0.128387537
 20
0.16935386181
 10
0.128387537
 20
0.17845397247
 10
0.12823753517
 20
0.17845397247
 10
0.12811253365
 20
0.17845397247
 10
0.12811253365
 20
0.16935386181
  0
LWPOLYLINE
  5
13A
102
{ACAD_REACTORS
330
47C
102
}
330
1E
100
AcDbEntity
  8
LY1
  6
Continuous
 62
     7
100
AcDbPolyline
 90
        7
 70
     0
 43
0.0
 10
0.12811253365
 20
0.16022875085
 10
0.12823753517
 20
0.16022875085
 10
0.128387537
 20
0.16022875085
 10
0.128387537
 20
0.16935386181
 10
0.12823753517
 20
0.16935386181
 10
0.12811253365
 20
0.16935386181
 10
0.12811253365
 20
0.16022875085
  0
LWPOLYLINE
  5
143
102
{ACAD_REACTORS
330
47C
102
}
330
1E
100
AcDbEntity
  8
LY1
  6
Continuous
 62
     7
100
AcDbPolyline
 90
        6
 70
     0
 43
0.0
 10
0.128387537
 20
0.16022875085
 10
0.12823753517
 20
0.16022875085
 10
0.12811253365
 20
0.16022875085
 10
0.12811253365
 20
0.16010374933
 10
0.12811253365
 20
0.15997874781
 10
0.128387537
 20
0.16022875085
  0
LWPOLYLINE
  5
14B
102
{ACAD_REACTORS
330
47C
102
}
330
1E
100
AcDbEntity
  8
LY1
  6
Continuous
 62
     7
100
AcDbPolyline
 90
        7
 70
     0
 43
0.0
 10
0.12408748471
 20
0.16022875085
 10
0.12408748471
 20
0.16010374933
 10
0.12408748471
 20
0.15997874781
 10
0.12811253365
 20
0.15997874781
 10
0.12811253365
 20
0.16010374933
 10
0.12811253365
 20
0.16022875085
 10
0.12408748471
 20
0.16022875085
  0
LWPOLYLINE
  5
154
102
{ACAD_REACTORS
330
47C
102
}
330
1E
100
AcDbEntity
  8
LY1
  6
Continuous
 62
     7
100
AcDbPolyline
 90
        6
 70
     0
 43
0.0
 10
0.12408748471
 20
0.15997874781
 10
0.12408748471
 20
0.16010374933
 10
0.12408748471
 20
0.16022875085
 10
0.12396248319
 20
0.16022875085
 10
0.12383748167
 20
0.16022875085
 10
0.12408748471
 20
0.15997874781
  0
LWPOLYLINE
  5
15C
102
{ACAD_REACTORS
330
47C
102
}
330
1E
100
AcDbEntity
  8
LY1
  6
Continuous
 62
     7
100
AcDbPolyline
 90
        7
 70
     0
 43
0.0
 10
0.12408748471
 20
0.16935386181
 10
0.12396248319
 20
0.16935386181
 10
0.12383748167
 20
0.16935386181
 10
0.12383748167
 20
0.16022875085
 10
0.12396248319
 20
0.16022875085
 10
0.12408748471
 20
0.16022875085
 10
0.12408748471
 20
0.16935386181
  0
LWPOLYLINE
  5
165
102
{ACAD_REACTORS
330
47C
102
}
330
1E
100
AcDbEntity
  8
LY1
  6
Continuous
 62
     7
100
AcDbPolyline
 90
        7
 70
     0
 43
0.0
 10
0.12408748471
 20
0.17845397247
 10
0.12396248319
 20
0.17845397247
 10
0.12383748167
 20
0.17845397247
 10
0.12383748167
 20
0.16935386181
 10
0.12396248319
 20
0.16935386181
 10
0.12408748471
 20
0.16935386181
 10
0.12408748471
 20
0.17845397247
  0
LWPOLYLINE
  5
16E
102
{ACAD_REACTORS
330
47C
102
}
330
1E
100
AcDbEntity
  8
LY1
  6
Continuous
 62
     7
100
AcDbPolyline
 90
        6
 70
     0
 43
0.0
 10
0.12383748167
 20
0.17872897581
 10
0.12383748167
 20
0.17857897399
 10
0.12383748167
 20
0.17845397247
 10
0.12396248319
 20
0.17845397247
 10
0.12408748471
 20
0.17845397247
 10
0.12383748167
 20
0.17872897581
  0
LWPOLYLINE
  5
176
102
{ACAD_REACTORS
330
47C
102
}
330
1E
100
AcDbEntity
  8
LY1
  6
Continuous
 62
     7
100
AcDbPolyline
 90
        7
 70
     0
 43
0.0
 10
0.11981243272
 20
0.17872897581
 10
0.11981243272
 20
0.17857897399
 10
0.11981243272
 20
0.17845397247
 10
0.12383748167
 20
0.17845397247
 10
0.12383748167
 20
0.17857897399
 10
0.12383748167
 20
0.17872897581
 10
0.11981243272
 20
0.17872897581
  0
LWPOLYLINE
  5
17F
102
{ACAD_REACTORS
330
47C
102
}
330
1E
100
AcDbEntity
  8
LY1
  6
Continuous
 62
     7
100
AcDbPolyline
 90
        6
 70
     0
 43
0.0
 10
0.11956242968
 20
0.17845397247
 10
0.1196874312
 20
0.17845397247
 10
0.11981243272
 20
0.17845397247
 10
0.11981243272
 20
0.17857897399
 10
0.11981243272
 20
0.17872897581
 10
0.11956242968
 20
0.17845397247
  0
LWPOLYLINE
  5
187
102
{ACAD_REACTORS
330
47C
102
}
330
1E
100
AcDbEntity
  8
LY1
  6
Continuous
 62
     7
100
AcDbPolyline
 90
        7
 70
     0
 43
0.0
 10
0.11956242968
 20
0.16935386181
 10
0.1196874312
 20
0.16935386181
 10
0.11981243272
 20
0.16935386181
 10
0.11981243272
 20
0.17845397247
 10
0.1196874312
 20
0.17845397247
 10
0.11956242968
 20
0.17845397247
 10
0.11956242968
 20
0.16935386181
  0
LWPOLYLINE
  5
190
102
{ACAD_REACTORS
330
47C
102
}
330
1E
100
AcDbEntity
  8
LY1
  6
Continuous
 62
     7
100
AcDbPolyline
 90
        7
 70
     0
 43
0.0
 10
0.11956242968
 20
0.16022875085
 10
0.1196874312
 20
0.16022875085
 10
0.11981243272
 20
0.16022875085
 10
0.11981243272
 20
0.16935386181
 10
0.1196874312
 20
0.16935386181
 10
0.11956242968
 20
0.16935386181
 10
0.11956242968
 20
0.16022875085
  0
LWPOLYLINE
  5
199
102
{ACAD_REACTORS
330
47C
102
}
330
1E
100
AcDbEntity
  8
LY1
  6
Continuous
 62
     7
100
AcDbPolyline
 90
        6
 70
     0
 43
0.0
 10
0.11981243272
 20
0.16022875085
 10
0.1196874312
 20
0.16022875085
 10
0.11956242968
 20
0.16022875085
 10
0.11956242968
 20
0.16010374933
 10
0.11956242968
 20
0.15997874781
 10
0.11981243272
 20
0.16022875085
  0
LWPOLYLINE
  5
1A1
102
{ACAD_REACTORS
330
47C
102
}
330
1E
100
AcDbEntity
  8
LY1
  6
Continuous
 62
     7
100
AcDbPolyline
 90
        7
 70
     0
 43
0.0
 10
0.11553738074
 20
0.16022875085
 10
0.11553738074
 20
0.16010374933
 10
0.11553738074
 20
0.15997874781
 10
0.11956242968
 20
0.15997874781
 10
0.11956242968
 20
0.16010374933
 10
0.11956242968
 20
0.16022875085
 10
0.11553738074
 20
0.16022875085
  0
LWPOLYLINE
  5
1AA
102
{ACAD_REACTORS
330
47C
102
}
330
1E
100
AcDbEntity
  8
LY1
  6
Continuous
 62
     7
100
AcDbPolyline
 90
        6
 70
     0
 43
0.0
 10
0.11553738074
 20
0.15997874781
 10
0.11553738074
 20
0.16010374933
 10
0.11553738074
 20
0.16022875085
 10
0.11541237922
 20
0.16022875085
 10
0.1152623774
 20
0.16022875085
 10
0.11553738074
 20
0.15997874781
  0
LWPOLYLINE
  5
1B2
102
{ACAD_REACTORS
330
47C
102
}
330
1E
100
AcDbEntity
  8
LY1
  6
Continuous
 62
     7
100
AcDbPolyline
 90
        7
 70
     0
 43
0.0
 10
0.11553738074
 20
0.16935386181
 10
0.11541237922
 20
0.16935386181
 10
0.1152623774
 20
0.16935386181
 10
0.1152623774
 20
0.16022875085
 10
0.11541237922
 20
0.16022875085
 10
0.11553738074
 20
0.16022875085
 10
0.11553738074
 20
0.16935386181
  0
LWPOLYLINE
  5
1BB
102
{ACAD_REACTORS
330
47C
102
}
330
1E
100
AcDbEntity
  8
LY1
  6
Continuous
 62
     7
100
AcDbPolyline
 90
        7
 70
     0
 43
0.0
 10
0.11553738074
 20
0.17845397247
 10
0.11541237922
 20
0.17845397247
 10
0.1152623774
 20
0.17845397247
 10
0.1152623774
 20
0.16935386181
 10
0.11541237922
 20
0.16935386181
 10
0.11553738074
 20
0.16935386181
 10
0.11553738074
 20
0.17845397247
  0
LWPOLYLINE
  5
1C4
102
{ACAD_REACTORS
330
47C
102
}
330
1E
100
AcDbEntity
  8
LY1
  6
Continuous
 62
     7
100
AcDbPolyline
 90
        6
 70
     0
 43
0.0
 10
0.1152623774
 20
0.17872897581
 10
0.1152623774
 20
0.17857897399
 10
0.1152623774
 20
0.17845397247
 10
0.11541237922
 20
0.17845397247
 10
0.11553738074
 20
0.17845397247
 10
0.1152623774
 20
0.17872897581
  0
LWPOLYLINE
  5
1CC
102
{ACAD_REACTORS
330
47C
102
}
330
1E
100
AcDbEntity
  8
LY1
  6
Continuous
 62
     7
100
AcDbPolyline
 90
        7
 70
     0
 43
0.0
 10
0.11126232875
 20
0.17872897581
 10
0.11126232875
 20
0.17857897399
 10
0.11126232875
 20
0.17845397247
 10
0.1152623774
 20
0.17845397247
 10
0.1152623774
 20
0.17857897399
 10
0.1152623774
 20
0.17872897581
 10
0.11126232875
 20
0.17872897581
  0
LWPOLYLINE
  5
1D5
102
{ACAD_REACTORS
330
47C
102
}
330
1E
100
AcDbEntity
  8
LY1
  6
Continuous
 62
     7
100
AcDbPolyline
 90
        6
 70
     0
 43
0.0
 10
0.11098732541
 20
0.17845397247
 10
0.11111232693
 20
0.17845397247
 10
0.11126232875
 20
0.17845397247
 10
0.11126232875
 20
0.17857897399
 10
0.11126232875
 20
0.17872897581
 10
0.11098732541
 20
0.17845397247
  0
LWPOLYLINE
  5
1DD
102
{ACAD_REACTORS
330
47C
102
}
330
1E
100
AcDbEntity
  8
LY1
  6
Continuous
 62
     7
100
AcDbPolyline
 90
        7
 70
     0
 43
0.0
 10
0.11098732541
 20
0.16935386181
 10
0.11111232693
 20
0.16935386181
 10
0.11126232875
 20
0.16935386181
 10
0.11126232875
 20
0.17845397247
 10
0.11111232693
 20
0.17845397247
 10
0.11098732541
 20
0.17845397247
 10
0.11098732541
 20
0.16935386181
  0
LWPOLYLINE
  5
1E6
102
{ACAD_REACTORS
330
47C
102
}
330
1E
100
AcDbEntity
  8
LY1
  6
Continuous
 62
     7
100
AcDbPolyline
 90
        7
 70
     0
 43
0.0
 10
0.11098732541
 20
0.16022875085
 10
0.11111232693
 20
0.16022875085
 10
0.11126232875
 20
0.16022875085
 10
0.11126232875
 20
0.16935386181
 10
0.11111232693
 20
0.16935386181
 10
0.11098732541
 20
0.16935386181
 10
0.11098732541
 20
0.16022875085
  0
LWPOLYLINE
  5
1EF
102
{ACAD_REACTORS
330
47C
102
}
330
1E
100
AcDbEntity
  8
LY1
  6
Continuous
 62
     7
100
AcDbPolyline
 90
        6
 70
     0
 43
0.0
 10
0.11126232875
 20
0.16022875085
 10
0.11111232693
 20
0.16022875085
 10
0.11098732541
 20
0.16022875085
 10
0.11098732541
 20
0.16010374933
 10
0.11098732541
 20
0.15997874781
 10
0.11126232875
 20
0.16022875085
  0
LWPOLYLINE
  5
1F7
102
{ACAD_REACTORS
330
47C
102
}
330
1E
100
AcDbEntity
  8
LY1
  6
Continuous
 62
     7
100
AcDbPolyline
 90
        7
 70
     0
 43
0.0
 10
0.11098732541
 20
0.15997874781
 10
0.11098732541
 20
0.16010374933
 10
0.11098732541
 20
0.16022875085
 10
0.10696227647
 20
0.16022875085
 10
0.10696227647
 20
0.16010374933
 10
0.10696227647
 20
0.15997874781
 10
0.11098732541
 20
0.15997874781
  0
LWPOLYLINE
  5
200
330
1E
100
AcDbEntity
  8
LY1
  6
Continuous
 62
     7
100
AcDbPolyline
 90
       10
 70
     0
 43
0.0
 10
0.10671227343
 20
0.16945386303
 10
0.10671227343
 20
0.16947886333
 10
0.10671227343
 20
0.16950386363
 10
0.10668727312
 20
0.16950386363
 10
0.10666227282
 20
0.16950386363
 10
0.10666227282
 20
0.16947886333
 10
0.10666227282
 20
0.16945386303
 10
0.10668727312
 20
0.16945386303
 10
0.10668727312
 20
0.16945386303
 10
0.10671227343
 20
0.16945386303
  0
LWPOLYLINE
  5
20C
102
{ACAD_REACTORS
330
47C
102
}
330
1E
100
AcDbEntity
  8
LY1
  6
Continuous
 62
     7
100
AcDbPolyline
 90
        6
 70
     0
 43
0.0
 10
0.10696227647
 20
0.15997874781
 10
0.10696227647
 20
0.16010374933
 10
0.10696227647
 20
0.16022875085
 10
0.10683727495
 20
0.16022875085
 10
0.10671227343
 20
0.16022875085
 10
0.10696227647
 20
0.15997874781
  0
LWPOLYLINE
  5
214
102
{ACAD_REACTORS
330
47C
102
}
330
1E
100
AcDbEntity
  8
LY1
  6
Continuous
 62
     7
100
AcDbPolyline
 90
        7
 70
     0
 43
0.0
 10
0.10671227343
 20
0.16022875085
 10
0.10683727495
 20
0.16022875085
 10
0.10696227647
 20
0.16022875085
 10
0.10696227647
 20
0.16935386181
 10
0.10683727495
 20
0.16935386181
 10
0.10671227343
 20
0.16935386181
 10
0.10671227343
 20
0.16022875085
  0
LWPOLYLINE
  5
21D
102
{ACAD_REACTORS
330
47C
102
}
330
1E
100
AcDbEntity
  8
LY1
  6
Continuous
 62
     7
100
AcDbPolyline
 90
        6
 70
     0
 43
0.0
 10
0.10671227343
 20
0.16960386485
 10
0.10671227343
 20
0.16947886333
 10
0.10671227343
 20
0.16935386181
 10
0.10683727495
 20
0.16935386181
 10
0.10696227647
 20
0.16935386181
 10
0.10671227343
 20
0.16960386485
  0
LWPOLYLINE
  5
225
102
{ACAD_REACTORS
330
47E
330
4A8
102
}
330
1E
100
AcDbEntity
  8
LY1
  6
Continuous
 62
     7
100
AcDbPolyline
 90
        6
 70
     0
 43
0.0
 10
0.105937264
 20
0.1693630524
 10
0.10668727312
 20
0.1693630524
 10
0.10743728224
 20
0.1693630524
 10
0.10743728224
 20
0.17036306456
 10
0.105937264
 20
0.17036306456
 10
0.105937264
 20
0.1693630524
  0
LWPOLYLINE
  5
22D
330
1E
100
AcDbEntity
  8
LY1
  6
Continuous
 62
     7
100
AcDbPolyline
 90
       10
 70
     0
 43
0.0
 10
0.12823753517
 20
0.18267902384
 10
0.12823753517
 20
0.18207901655
 10
0.12823753517
 20
0.18147900925
 10
0.12823753517
 20
0.18147900925
 10
0.12828753578
 20
0.18147900925
 10
0.12828753578
 20
0.18207901655
 10
0.12828753578
 20
0.18267902384
 10
0.12823753517
 20
0.18267902384
 10
0.12823753517
 20
0.18267902384
 10
0.12823753517
 20
0.18267902384
  0
LWPOLYLINE
  5
239
102
{ACAD_REACTORS
330
574
102
}
330
1E
100
AcDbEntity
  8
LY1
  6
Continuous
 62
     7
100
AcDbPolyline
 90
        6
 70
     0
 43
0.0
 10
0.12823753517
 20
0.18132900743
 10
0.12823753517
 20
0.18207901655
 10
0.12823753517
 20
0.18282902567
 10
0.12721252271
 20
0.18282902567
 10
0.12721252271
 20
0.18132900743
 10
0.12823753517
 20
0.18132900743
  0
LWPOLYLINE
  5
241
102
{ACAD_REACTORS
330
47E
330
4A8
102
}
330
1E
100
AcDbEntity
  8
LY1
  6
Continuous
 62
     7
100
AcDbPolyline
 90
        7
 70
     0
 43
0.0
 10
0.10803728954
 20
0.18277253826
 10
0.10668727312
 20
0.18277253826
 10
0.10533725671
 20
0.18277253826
 10
0.10533725671
 20
0.17312560076
 10
0.10668727312
 20
0.17312560076
 10
0.10803728954
 20
0.17312560076
 10
0.10803728954
 20
0.18277253826
  0
LWPOLYLINE
  5
24A
102
{ACAD_REACTORS
330
4A8
102
}
330
1E
100
AcDbEntity
  8
LY1
  6
Continuous
 62
     7
100
AcDbPolyline
 90
        6
 70
     0
 43
0.0
 10
0.10743728224
 20
0.17356310348
 10
0.10668727312
 20
0.17356310348
 10
0.105937264
 20
0.17356310348
 10
0.105937264
 20
0.17256309132
 10
0.10743728224
 20
0.17256309132
 10
0.10743728224
 20
0.17356310348
  0
LWPOLYLINE
  5
252
102
{ACAD_REACTORS
330
4A8
102
}
330
1E
100
AcDbEntity
  8
LY1
  6
Continuous
 62
     7
100
AcDbPolyline
 90
        5
 70
     0
 43
0.0
 10
0.10532777054
 20
0.18375589837
 10
0.10802517743
 20
0.18375589837
 10
0.10802517743
 20
0.1795137326
 10
0.10532777054
 20
0.1795137326
 10
0.10532777054
 20
0.18375589837
  0
LWPOLYLINE
  5
259
102
{ACAD_REACTORS
330
574
330
99E
102
}
330
1E
100
AcDbEntity
  8
LY1
  6
Continuous
 62
     7
100
AcDbPolyline
 90
        6
 70
     0
 43
0.0
 10
0.13245200816
 20
0.18132900743
 10
0.13245200816
 20
0.18207901655
 10
0.13245200816
 20
0.18282902567
 10
0.131451996
 20
0.18282902567
 10
0.131451996
 20
0.18132900743
 10
0.13245200816
 20
0.18132900743
  0
LWPOLYLINE
  5
261
102
{ACAD_REACTORS
330
47E
102
}
330
1E
100
AcDbEntity
  8
LY1
  6
Continuous
 62
     7
100
AcDbPolyline
 90
        6
 70
     0
 43
0.0
 10
0.12825195709
 20
0.18282902567
 10
0.12825195709
 20
0.18207901655
 10
0.12825195709
 20
0.18132900743
 10
0.12925196925
 20
0.18132900743
 10
0.12925196925
 20
0.18282902567
 10
0.12825195709
 20
0.18282902567
  0
LWPOLYLINE
  5
269
102
{ACAD_REACTORS
330
574
330
99E
102
}
330
1E
100
AcDbEntity
  8
LY1
  6
Continuous
 62
     7
100
AcDbPolyline
 90
      101
 70
     0
 43
0.0
 10
0.13282565682
 20
0.18207901655
 10
0.13280065651
 20
0.18212901716
 10
0.13280065651
 20
0.18215401746
 10
0.13280065651
 20
0.18220401807
 10
0.13280065651
 20
0.18225401868
 10
0.13277565621
 20
0.18227901898
 10
0.13277565621
 20
0.18232901959
 10
0.13275065591
 20
0.1823790202
 10
0.1327256556
 20
0.1824040205
 10
0.1327006553
 20
0.18245402111
 10
0.13267565499
 20
0.18247902141
 10
0.13265065469
 20
0.18252902202
 10
0.13262565439
 20
0.18255402232
 10
0.13260065408
 20
0.18257902263
 10
0.13255065347
 20
0.18260402293
 10
0.13252565317
 20
0.18265402354
 10
0.13247565256
 20
0.18267902384
 10
0.13245065226
 20
0.18267902384
 10
0.13240065165
 20
0.18270402415
 10
0.13237565135
 20
0.18272902445
 10
0.13232565074
 20
0.18275402476
 10
0.13227565013
 20
0.18275402476
 10
0.13225064983
 20
0.18275402476
 10
0.13220064922
 20
0.18277902506
 10
0.13215064861
 20
0.18277902506
 10
0.132100648
 20
0.18277902506
 10
0.1320756477
 20
0.18277902506
 10
0.13202564709
 20
0.18277902506
 10
0.13197564648
 20
0.18275402476
 10
0.13192564587
 20
0.18275402476
 10
0.13190064557
 20
0.18275402476
 10
0.13185064496
 20
0.18272902445
 10
0.13180064435
 20
0.18270402415
 10
0.13177564405
 20
0.18267902384
 10
0.13172564344
 20
0.18267902384
 10
0.13170064314
 20
0.18265402354
 10
0.13165064253
 20
0.18260402293
 10
0.13162564223
 20
0.18257902263
 10
0.13160064192
 20
0.18255402232
 10
0.13157564162
 20
0.18252902202
 10
0.13155064131
 20
0.18247902141
 10
0.13152564101
 20
0.18245402111
 10
0.13150064071
 20
0.1824040205
 10
0.1314756404
 20
0.1823790202
 10
0.1314506401
 20
0.18232901959
 10
0.1314506401
 20
0.18227901898
 10
0.13142563979
 20
0.18225401868
 10
0.13142563979
 20
0.18220401807
 10
0.13140063949
 20
0.18215401746
 10
0.13140063949
 20
0.18212901716
 10
0.13140063949
 20
0.18207901655
 10
0.13140063949
 20
0.18202901594
 10
0.13140063949
 20
0.18197901533
 10
0.13142563979
 20
0.18195401503
 10
0.13142563979
 20
0.18190401442
 10
0.1314506401
 20
0.18185401381
 10
0.1314506401
 20
0.1818040132
 10
0.1314756404
 20
0.1817790129
 10
0.13150064071
 20
0.18172901229
 10
0.13152564101
 20
0.18170401199
 10
0.13155064131
 20
0.18165401138
 10
0.13157564162
 20
0.18162901108
 10
0.13160064192
 20
0.18160401077
 10
0.13162564223
 20
0.18155401016
 10
0.13165064253
 20
0.18152900986
 10
0.13170064314
 20
0.18150400956
 10
0.13172564344
 20
0.18147900925
 10
0.13177564405
 20
0.18145400895
 10
0.13180064435
 20
0.18142900864
 10
0.13185064496
 20
0.18142900864
 10
0.13190064557
 20
0.18140400834
 10
0.13192564587
 20
0.18140400834
 10
0.13197564648
 20
0.18137900804
 10
0.13202564709
 20
0.18137900804
 10
0.1320756477
 20
0.18137900804
 10
0.132100648
 20
0.18137900804
 10
0.13215064861
 20
0.18137900804
 10
0.13220064922
 20
0.18137900804
 10
0.13225064983
 20
0.18137900804
 10
0.13227565013
 20
0.18140400834
 10
0.13232565074
 20
0.18140400834
 10
0.13237565135
 20
0.18142900864
 10
0.13240065165
 20
0.18142900864
 10
0.13245065226
 20
0.18145400895
 10
0.13247565256
 20
0.18147900925
 10
0.13252565317
 20
0.18150400956
 10
0.13255065347
 20
0.18152900986
 10
0.13260065408
 20
0.18155401016
 10
0.13262565439
 20
0.18160401077
 10
0.13265065469
 20
0.18162901108
 10
0.13267565499
 20
0.18165401138
 10
0.1327006553
 20
0.18170401199
 10
0.1327256556
 20
0.18172901229
 10
0.13275065591
 20
0.1817790129
 10
0.13277565621
 20
0.1818040132
 10
0.13277565621
 20
0.18185401381
 10
0.13280065651
 20
0.18190401442
 10
0.13280065651
 20
0.18195401503
 10
0.13280065651
 20
0.18197901533
 10
0.13280065651
 20
0.18202901594
 10
0.13282565682
 20
0.18207901655
  0
LWPOLYLINE
  5
2D0
102
{ACAD_REACTORS
330
99E
102
}
330
1E
100
AcDbEntity
  8
LY1
  6
Continuous
 62
     7
100
AcDbPolyline
 90
        6
 70
     0
 43
0.0
 10
0.13248758685
 20
0.18210401685
 10
0.13248758685
 20
0.18207901655
 10
0.13248758685
 20
0.18205401624
 10
0.13253758746
 20
0.18205401624
 10
0.13253758746
 20
0.18210401685
 10
0.13248758685
 20
0.18210401685
  0
CIRCLE
  5
2D8
102
{ACAD_REACTORS
330
6F9
330
99E
102
}
330
1E
100
AcDbEntity
  8
LY1
 62
     7
100
AcDbCircle
 10
0.13213598962
 20
0.18207905959
 30
0.0
 40
0.00031194041
  0
LWPOLYLINE
  5
2E5
330
1E
100
AcDbEntity
  8
LY1
  6
Continuous
 62
     7
100
AcDbPolyline
 90
       10
 70
     0
 43
0.0
 10
0.10126164433
 20
0.1721180602
 10
0.10128664463
 20
0.1721180602
 10
0.10131164494
 20
0.1721180602
 10
0.10131164494
 20
0.1721430605
 10
0.10131164494
 20
0.17216806081
 10
0.10128664463
 20
0.17216806081
 10
0.10126164433
 20
0.17216806081
 10
0.10126164433
 20
0.1721430605
 10
0.10126164433
 20
0.1721430605
 10
0.10126164433
 20
0.1721180602
  0
LWPOLYLINE
  5
2F1
102
{ACAD_REACTORS
330
785
330
7F4
102
}
330
1E
100
AcDbEntity
  8
LY1
  6
Continuous
 62
     7
100
AcDbPolyline
 90
        6
 70
     0
 43
0.0
 10
0.0992378532118515
 20
0.1708749387779842
 10
0.0992378532118515
 20
0.1701249296579842
 10
0.0992378532118515
 20
0.1693749205379842
 10
0.1002378653718515
 20
0.1693749205379842
 10
0.1002378653718515
 20
0.1708749387779842
 10
0.0992378532118515
 20
0.1708749387779842
  0
LWPOLYLINE
  5
369
102
{ACAD_REACTORS
330
99E
102
}
330
1E
100
AcDbEntity
  8
LY1
  6
Continuous
 62
     7
100
AcDbPolyline
 90
        6
 70
     0
 43
0.0
 10
0.10131164494
 20
0.16485406915
 10
0.10128664463
 20
0.16485406915
 10
0.10126164433
 20
0.16485406915
 10
0.10126164433
 20
0.16480406854
 10
0.10131164494
 20
0.16480406854
 10
0.10131164494
 20
0.16485406915
  0
LWPOLYLINE
  5
371
102
{ACAD_REACTORS
330
6F9
330
99E
102
}
330
1E
100
AcDbEntity
  8
LY1
  6
Continuous
 62
     7
100
AcDbPolyline
 90
        6
 70
     0
 43
0.0
 10
0.10053663551
 20
0.16485406915
 10
0.10128664463
 20
0.16485406915
 10
0.10203665375
 20
0.16485406915
 10
0.10203665375
 20
0.16585408131
 10
0.10053663551
 20
0.16585408131
 10
0.10053663551
 20
0.16485406915
  0
LWPOLYLINE
  5
379
102
{ACAD_REACTORS
330
47E
102
}
330
1E
100
AcDbEntity
  8
LY1
  6
Continuous
 62
     7
100
AcDbPolyline
 90
        6
 70
     0
 43
0.0
 10
0.10203665375
 20
0.16905412022
 10
0.10128664463
 20
0.16905412022
 10
0.10053663551
 20
0.16905412022
 10
0.10053663551
 20
0.16805410806
 10
0.10203665375
 20
0.16805410806
 10
0.10203665375
 20
0.16905412022
  0
LWPOLYLINE
  5
381
102
{ACAD_REACTORS
330
6F9
330
99E
102
}
330
1E
100
AcDbEntity
  8
LY1
  6
Continuous
 62
     7
100
AcDbPolyline
 90
        6
 70
     0
 43
0.0
 10
0.10203665375
 20
0.17541174112
 10
0.10128664463
 20
0.17541174112
 10
0.10053663551
 20
0.17541174112
 10
0.10053663551
 20
0.17441172896
 10
0.10203665375
 20
0.17441172896
 10
0.10203665375
 20
0.17541174112
  0
LWPOLYLINE
  5
389
102
{ACAD_REACTORS
330
47E
102
}
330
1E
100
AcDbEntity
  8
LY1
  6
Continuous
 62
     7
100
AcDbPolyline
 90
        6
 70
     0
 43
0.0
 10
0.10053663551
 20
0.17118668975
 10
0.10128664463
 20
0.17118668975
 10
0.10203665375
 20
0.17118668975
 10
0.10203665375
 20
0.17218670191
 10
0.10053663551
 20
0.17218670191
 10
0.10053663551
 20
0.17118668975
  0
LWPOLYLINE
  5
391
102
{ACAD_REACTORS
330
47E
102
}
330
1E
100
AcDbEntity
  8
LY1
  6
Continuous
 62
     7
100
AcDbPolyline
 90
        6
 70
     0
 43
0.0
 10
0.10327964559
 20
0.16936802676
 10
0.10327964559
 20
0.17011803588
 10
0.10327964559
 20
0.170868045
 10
0.10225463312
 20
0.170868045
 10
0.10225463312
 20
0.16936802676
 10
0.10327964559
 20
0.16936802676
  0
LWPOLYLINE
  5
399
102
{ACAD_REACTORS
330
6F9
330
99E
102
}
330
1E
100
AcDbEntity
  8
LY1
  6
Continuous
 62
     7
100
AcDbPolyline
 90
      101
 70
     0
 43
0.0
 10
0.10198665314
 20
0.17475096648
 10
0.10198665314
 20
0.17480096709
 10
0.10198665314
 20
0.17482596739
 10
0.10198665314
 20
0.174875968
 10
0.10196165284
 20
0.17492596861
 10
0.10196165284
 20
0.17497596922
 10
0.10193665254
 20
0.17500096952
 10
0.10193665254
 20
0.17505097013
 10
0.10191165223
 20
0.17510097074
 10
0.10188665193
 20
0.17512597104
 10
0.10186165162
 20
0.17515097134
 10
0.10183665132
 20
0.17520097195
 10
0.10181165102
 20
0.17522597226
 10
0.10178665071
 20
0.17525097256
 10
0.1017366501
 20
0.17530097317
 10
0.1017116498
 20
0.17532597347
 10
0.10166164919
 20
0.17535097378
 10
0.10163664889
 20
0.17537597408
 10
0.10158664828
 20
0.17537597408
 10
0.10156164798
 20
0.17540097438
 10
0.10151164737
 20
0.17542597469
 10
0.10146164676
 20
0.17542597469
 10
0.10143664646
 20
0.17545097499
 10
0.10138664585
 20
0.17545097499
 10
0.10133664524
 20
0.17545097499
 10
0.10128664463
 20
0.17545097499
 10
0.10123664402
 20
0.17545097499
 10
0.10121164372
 20
0.17545097499
 10
0.10116164311
 20
0.17545097499
 10
0.1011116425
 20
0.17542597469
 10
0.1010866422
 20
0.17542597469
 10
0.10103664159
 20
0.17540097438
 10
0.10098664098
 20
0.17537597408
 10
0.10096164068
 20
0.17537597408
 10
0.10091164007
 20
0.17535097378
 10
0.10088663977
 20
0.17532597347
 10
0.10083663916
 20
0.17530097317
 10
0.10081163886
 20
0.17525097256
 10
0.10078663855
 20
0.17522597226
 10
0.10076163825
 20
0.17520097195
 10
0.10071163764
 20
0.17515097134
 10
0.10068663734
 20
0.17512597104
 10
0.10068663734
 20
0.17510097074
 10
0.10066163703
 20
0.17505097013
 10
0.10063663673
 20
0.17500096952
 10
0.10061163642
 20
0.17497596922
 10
0.10061163642
 20
0.17492596861
 10
0.10061163642
 20
0.174875968
 10
0.10058663612
 20
0.17482596739
 10
0.10058663612
 20
0.17480096709
 10
0.10058663612
 20
0.17475096648
 10
0.10058663612
 20
0.17470096587
 10
0.10058663612
 20
0.17465096526
 10
0.10061163642
 20
0.17462596496
 10
0.10061163642
 20
0.17457596435
 10
0.10061163642
 20
0.17452596374
 10
0.10063663673
 20
0.17450096344
 10
0.10066163703
 20
0.17445096283
 10
0.10068663734
 20
0.17440096222
 10
0.10068663734
 20
0.17437596192
 10
0.10071163764
 20
0.17432596131
 10
0.10076163825
 20
0.17430096101
 10
0.10078663855
 20
0.1742759607
 10
0.10081163886
 20
0.1742259601
 10
0.10083663916
 20
0.17420095979
 10
0.10088663977
 20
0.17417595949
 10
0.10091164007
 20
0.17415095918
 10
0.10096164068
 20
0.17412595888
 10
0.10098664098
 20
0.17410095858
 10
0.10103664159
 20
0.17410095858
 10
0.1010866422
 20
0.17407595827
 10
0.1011116425
 20
0.17407595827
 10
0.10116164311
 20
0.17405095797
 10
0.10121164372
 20
0.17405095797
 10
0.10123664402
 20
0.17405095797
 10
0.10128664463
 20
0.17405095797
 10
0.10133664524
 20
0.17405095797
 10
0.10138664585
 20
0.17405095797
 10
0.10143664646
 20
0.17405095797
 10
0.10146164676
 20
0.17407595827
 10
0.10151164737
 20
0.17407595827
 10
0.10156164798
 20
0.17410095858
 10
0.10158664828
 20
0.17410095858
 10
0.10163664889
 20
0.17412595888
 10
0.10166164919
 20
0.17415095918
 10
0.1017116498
 20
0.17417595949
 10
0.1017366501
 20
0.17420095979
 10
0.10178665071
 20
0.1742259601
 10
0.10181165102
 20
0.1742759607
 10
0.10183665132
 20
0.17430096101
 10
0.10186165162
 20
0.17432596131
 10
0.10188665193
 20
0.17437596192
 10
0.10191165223
 20
0.17440096222
 10
0.10193665254
 20
0.17445096283
 10
0.10193665254
 20
0.17450096344
 10
0.10196165284
 20
0.17452596374
 10
0.10196165284
 20
0.17457596435
 10
0.10198665314
 20
0.17462596496
 10
0.10198665314
 20
0.17465096526
 10
0.10198665314
 20
0.17470096587
 10
0.10198665314
 20
0.17475096648
  0
LWPOLYLINE
  5
400
102
{ACAD_REACTORS
330
99E
102
}
330
1E
100
AcDbEntity
  8
LY1
  6
Continuous
 62
     7
100
AcDbPolyline
 90
        6
 70
     0
 43
0.0
 10
0.10126164433
 20
0.17507538451
 10
0.10128664463
 20
0.17507538451
 10
0.10131164494
 20
0.17507538451
 10
0.10131164494
 20
0.17510038481
 10
0.10126164433
 20
0.17510038481
 10
0.10126164433
 20
0.17507538451
  0
CIRCLE
  5
408
102
{ACAD_REACTORS
330
6F9
330
99E
102
}
330
1E
100
AcDbEntity
  8
LY1
 62
     7
100
AcDbCircle
 10
0.10126325668
 20
0.17474027137
 30
0.0
 40
0.00031194041
  0
LWPOLYLINE
  5
409
102
{ACAD_REACTORS
330
6F9
330
99E
102
}
330
1E
100
AcDbEntity
  8
LY1
  6
Continuous
 62
     7
100
AcDbPolyline
 90
      101
 70
     0
 43
0.0
 10
0.10198665314
 20
0.16551484379
 10
0.10198665314
 20
0.16553984409
 10
0.10198665314
 20
0.1655898447
 10
0.10198665314
 20
0.16563984531
 10
0.10196165284
 20
0.16568984592
 10
0.10196165284
 20
0.16571484622
 10
0.10193665254
 20
0.16576484683
 10
0.10193665254
 20
0.16581484744
 10
0.10191165223
 20
0.16583984774
 10
0.10188665193
 20
0.16588984835
 10
0.10186165162
 20
0.16591484865
 10
0.10183665132
 20
0.16593984896
 10
0.10181165102
 20
0.16598984957
 10
0.10178665071
 20
0.16601484987
 10
0.1017366501
 20
0.16603985017
 10
0.1017116498
 20
0.16606485048
 10
0.10166164919
 20
0.16608985078
 10
0.10163664889
 20
0.16611485109
 10
0.10158664828
 20
0.16613985139
 10
0.10156164798
 20
0.16616485169
 10
0.10151164737
 20
0.16616485169
 10
0.10146164676
 20
0.166189852
 10
0.10143664646
 20
0.166189852
 10
0.10138664585
 20
0.166189852
 10
0.10133664524
 20
0.1662148523
 10
0.10128664463
 20
0.1662148523
 10
0.10123664402
 20
0.1662148523
 10
0.10121164372
 20
0.166189852
 10
0.10116164311
 20
0.166189852
 10
0.1011116425
 20
0.166189852
 10
0.1010866422
 20
0.16616485169
 10
0.10103664159
 20
0.16616485169
 10
0.10098664098
 20
0.16613985139
 10
0.10096164068
 20
0.16611485109
 10
0.10091164007
 20
0.16608985078
 10
0.10088663977
 20
0.16606485048
 10
0.10083663916
 20
0.16603985017
 10
0.10081163886
 20
0.16601484987
 10
0.10078663855
 20
0.16598984957
 10
0.10076163825
 20
0.16593984896
 10
0.10071163764
 20
0.16591484865
 10
0.10068663734
 20
0.16588984835
 10
0.10068663734
 20
0.16583984774
 10
0.10066163703
 20
0.16581484744
 10
0.10063663673
 20
0.16576484683
 10
0.10061163642
 20
0.16571484622
 10
0.10061163642
 20
0.16568984592
 10
0.10061163642
 20
0.16563984531
 10
0.10058663612
 20
0.1655898447
 10
0.10058663612
 20
0.16553984409
 10
0.10058663612
 20
0.16551484379
 10
0.10058663612
 20
0.16546484318
 10
0.10058663612
 20
0.16541484257
 10
0.10061163642
 20
0.16536484197
 10
0.10061163642
 20
0.16533984166
 10
0.10061163642
 20
0.16528984105
 10
0.10063663673
 20
0.16523984045
 10
0.10066163703
 20
0.16521484014
 10
0.10068663734
 20
0.16516483953
 10
0.10068663734
 20
0.16511483893
 10
0.10071163764
 20
0.16508983862
 10
0.10076163825
 20
0.16506483832
 10
0.10078663855
 20
0.16501483771
 10
0.10081163886
 20
0.16498983741
 10
0.10083663916
 20
0.1649648371
 10
0.10088663977
 20
0.1649398368
 10
0.10091164007
 20
0.16491483649
 10
0.10096164068
 20
0.16488983619
 10
0.10098664098
 20
0.16486483589
 10
0.10103664159
 20
0.16483983558
 10
0.1010866422
 20
0.16483983558
 10
0.1011116425
 20
0.16481483528
 10
0.10116164311
 20
0.16481483528
 10
0.10121164372
 20
0.16481483528
 10
0.10123664402
 20
0.16478983497
 10
0.10128664463
 20
0.16478983497
 10
0.10133664524
 20
0.16478983497
 10
0.10138664585
 20
0.16481483528
 10
0.10143664646
 20
0.16481483528
 10
0.10146164676
 20
0.16481483528
 10
0.10151164737
 20
0.16483983558
 10
0.10156164798
 20
0.16483983558
 10
0.10158664828
 20
0.16486483589
 10
0.10163664889
 20
0.16488983619
 10
0.10166164919
 20
0.16491483649
 10
0.1017116498
 20
0.1649398368
 10
0.1017366501
 20
0.1649648371
 10
0.10178665071
 20
0.16498983741
 10
0.10181165102
 20
0.16501483771
 10
0.10183665132
 20
0.16506483832
 10
0.10186165162
 20
0.16508983862
 10
0.10188665193
 20
0.16511483893
 10
0.10191165223
 20
0.16516483953
 10
0.10193665254
 20
0.16521484014
 10
0.10193665254
 20
0.16523984045
 10
0.10196165284
 20
0.16528984105
 10
0.10196165284
 20
0.16533984166
 10
0.10198665314
 20
0.16536484197
 10
0.10198665314
 20
0.16541484257
 10
0.10198665314
 20
0.16546484318
 10
0.10198665314
 20
0.16551484379
  0
CIRCLE
  5
470
102
{ACAD_REACTORS
330
6F9
330
99E
102
}
330
1E
100
AcDbEntity
  8
LY1
 62
     7
100
AcDbCircle
 10
0.10129445073
 20
0.16549932355
 30
0.0
 40
0.00031194041
  0
TEXT
  5
471
330
1E
100
AcDbEntity
  8
LY1
 62
     7
100
AcDbText
 10
0.09539337854
 20
0.16935021381
 30
0.0
 40
0.00165580993
  1
IN
 41
0.66666666667
100
AcDbText
  0
HATCH
  5
47C
330
1E
100
AcDbEntity
  8
1
  6
Continuous
100
AcDbHatch
 10
0.0
 20
0.0
 30
0.0
210
0.0
220
0.0
230
1.0
  2
SOLID
 70
     1
 71
     1
 91
       28
 92
        1
 93
        5
 72
     1
 10
0.11126232875
 20
0.16022875085
 11
0.11111232693
 21
0.16022875085
 72
     1
 10
0.11111232693
 20
0.16022875085
 11
0.11098732541
 21
0.16022875085
 72
     1
 10
0.11098732541
 20
0.16022875085
 11
0.11098732541
 21
0.16010374933
 72
     1
 10
0.11098732541
 20
0.16010374933
 11
0.11098732541
 21
0.15997874781
 72
     1
 10
0.11098732541
 20
0.15997874781
 11
0.11126232875
 21
0.16022875085
 97
        1
330
1EF
 92
        1
 93
        6
 72
     1
 10
0.11098732541
 20
0.16022875085
 11
0.11111232693
 21
0.16022875085
 72
     1
 10
0.11111232693
 20
0.16022875085
 11
0.11126232875
 21
0.16022875085
 72
     1
 10
0.11126232875
 20
0.16022875085
 11
0.11126232875
 21
0.16935386181
 72
     1
 10
0.11126232875
 20
0.16935386181
 11
0.11111232693
 21
0.16935386181
 72
     1
 10
0.11111232693
 20
0.16935386181
 11
0.11098732541
 21
0.16935386181
 72
     1
 10
0.11098732541
 20
0.16935386181
 11
0.11098732541
 21
0.16022875085
 97
        1
330
1E6
 92
        1
 93
        6
 72
     1
 10
0.11098732541
 20
0.16935386181
 11
0.11111232693
 21
0.16935386181
 72
     1
 10
0.11111232693
 20
0.16935386181
 11
0.11126232875
 21
0.16935386181
 72
     1
 10
0.11126232875
 20
0.16935386181
 11
0.11126232875
 21
0.17845397247
 72
     1
 10
0.11126232875
 20
0.17845397247
 11
0.11111232693
 21
0.17845397247
 72
     1
 10
0.11111232693
 20
0.17845397247
 11
0.11098732541
 21
0.17845397247
 72
     1
 10
0.11098732541
 20
0.17845397247
 11
0.11098732541
 21
0.16935386181
 97
        1
330
1DD
 92
        1
 93
        5
 72
     1
 10
0.11098732541
 20
0.17845397247
 11
0.11111232693
 21
0.17845397247
 72
     1
 10
0.11111232693
 20
0.17845397247
 11
0.11126232875
 21
0.17845397247
 72
     1
 10
0.11126232875
 20
0.17845397247
 11
0.11126232875
 21
0.17857897399
 72
     1
 10
0.11126232875
 20
0.17857897399
 11
0.11126232875
 21
0.17872897581
 72
     1
 10
0.11126232875
 20
0.17872897581
 11
0.11098732541
 21
0.17845397247
 97
        1
330
1D5
 92
        1
 93
        6
 72
     1
 10
0.11126232875
 20
0.17872897581
 11
0.11126232875
 21
0.17857897399
 72
     1
 10
0.11126232875
 20
0.17857897399
 11
0.11126232875
 21
0.17845397247
 72
     1
 10
0.11126232875
 20
0.17845397247
 11
0.1152623774
 21
0.17845397247
 72
     1
 10
0.1152623774
 20
0.17845397247
 11
0.1152623774
 21
0.17857897399
 72
     1
 10
0.1152623774
 20
0.17857897399
 11
0.1152623774
 21
0.17872897581
 72
     1
 10
0.1152623774
 20
0.17872897581
 11
0.11126232875
 21
0.17872897581
 97
        1
330
1CC
 92
        1
 93
        5
 72
     1
 10
0.1152623774
 20
0.17872897581
 11
0.1152623774
 21
0.17857897399
 72
     1
 10
0.1152623774
 20
0.17857897399
 11
0.1152623774
 21
0.17845397247
 72
     1
 10
0.1152623774
 20
0.17845397247
 11
0.11541237922
 21
0.17845397247
 72
     1
 10
0.11541237922
 20
0.17845397247
 11
0.11553738074
 21
0.17845397247
 72
     1
 10
0.11553738074
 20
0.17845397247
 11
0.1152623774
 21
0.17872897581
 97
        1
330
1C4
 92
        1
 93
        6
 72
     1
 10
0.11553738074
 20
0.17845397247
 11
0.11541237922
 21
0.17845397247
 72
     1
 10
0.11541237922
 20
0.17845397247
 11
0.1152623774
 21
0.17845397247
 72
     1
 10
0.1152623774
 20
0.17845397247
 11
0.1152623774
 21
0.16935386181
 72
     1
 10
0.1152623774
 20
0.16935386181
 11
0.11541237922
 21
0.16935386181
 72
     1
 10
0.11541237922
 20
0.16935386181
 11
0.11553738074
 21
0.16935386181
 72
     1
 10
0.11553738074
 20
0.16935386181
 11
0.11553738074
 21
0.17845397247
 97
        1
330
1BB
 92
        1
 93
        6
 72
     1
 10
0.11553738074
 20
0.16935386181
 11
0.11541237922
 21
0.16935386181
 72
     1
 10
0.11541237922
 20
0.16935386181
 11
0.1152623774
 21
0.16935386181
 72
     1
 10
0.1152623774
 20
0.16935386181
 11
0.1152623774
 21
0.16022875085
 72
     1
 10
0.1152623774
 20
0.16022875085
 11
0.11541237922
 21
0.16022875085
 72
     1
 10
0.11541237922
 20
0.16022875085
 11
0.11553738074
 21
0.16022875085
 72
     1
 10
0.11553738074
 20
0.16022875085
 11
0.11553738074
 21
0.16935386181
 97
        1
330
1B2
 92
        1
 93
        5
 72
     1
 10
0.11553738074
 20
0.15997874781
 11
0.11553738074
 21
0.16010374933
 72
     1
 10
0.11553738074
 20
0.16010374933
 11
0.11553738074
 21
0.16022875085
 72
     1
 10
0.11553738074
 20
0.16022875085
 11
0.11541237922
 21
0.16022875085
 72
     1
 10
0.11541237922
 20
0.16022875085
 11
0.1152623774
 21
0.16022875085
 72
     1
 10
0.1152623774
 20
0.16022875085
 11
0.11553738074
 21
0.15997874781
 97
        1
330
1AA
 92
        1
 93
        6
 72
     1
 10
0.11553738074
 20
0.16022875085
 11
0.11553738074
 21
0.16010374933
 72
     1
 10
0.11553738074
 20
0.16010374933
 11
0.11553738074
 21
0.15997874781
 72
     1
 10
0.11553738074
 20
0.15997874781
 11
0.11956242968
 21
0.15997874781
 72
     1
 10
0.11956242968
 20
0.15997874781
 11
0.11956242968
 21
0.16010374933
 72
     1
 10
0.11956242968
 20
0.16010374933
 11
0.11956242968
 21
0.16022875085
 72
     1
 10
0.11956242968
 20
0.16022875085
 11
0.11553738074
 21
0.16022875085
 97
        1
330
1A1
 92
        1
 93
        5
 72
     1
 10
0.11981243272
 20
0.16022875085
 11
0.1196874312
 21
0.16022875085
 72
     1
 10
0.1196874312
 20
0.16022875085
 11
0.11956242968
 21
0.16022875085
 72
     1
 10
0.11956242968
 20
0.16022875085
 11
0.11956242968
 21
0.16010374933
 72
     1
 10
0.11956242968
 20
0.16010374933
 11
0.11956242968
 21
0.15997874781
 72
     1
 10
0.11956242968
 20
0.15997874781
 11
0.11981243272
 21
0.16022875085
 97
        1
330
199
 92
        1
 93
        6
 72
     1
 10
0.11956242968
 20
0.16022875085
 11
0.1196874312
 21
0.16022875085
 72
     1
 10
0.1196874312
 20
0.16022875085
 11
0.11981243272
 21
0.16022875085
 72
     1
 10
0.11981243272
 20
0.16022875085
 11
0.11981243272
 21
0.16935386181
 72
     1
 10
0.11981243272
 20
0.16935386181
 11
0.1196874312
 21
0.16935386181
 72
     1
 10
0.1196874312
 20
0.16935386181
 11
0.11956242968
 21
0.16935386181
 72
     1
 10
0.11956242968
 20
0.16935386181
 11
0.11956242968
 21
0.16022875085
 97
        1
330
190
 92
        1
 93
        6
 72
     1
 10
0.11956242968
 20
0.16935386181
 11
0.1196874312
 21
0.16935386181
 72
     1
 10
0.1196874312
 20
0.16935386181
 11
0.11981243272
 21
0.16935386181
 72
     1
 10
0.11981243272
 20
0.16935386181
 11
0.11981243272
 21
0.17845397247
 72
     1
 10
0.11981243272
 20
0.17845397247
 11
0.1196874312
 21
0.17845397247
 72
     1
 10
0.1196874312
 20
0.17845397247
 11
0.11956242968
 21
0.17845397247
 72
     1
 10
0.11956242968
 20
0.17845397247
 11
0.11956242968
 21
0.16935386181
 97
        1
330
187
 92
        1
 93
        5
 72
     1
 10
0.11956242968
 20
0.17845397247
 11
0.1196874312
 21
0.17845397247
 72
     1
 10
0.1196874312
 20
0.17845397247
 11
0.11981243272
 21
0.17845397247
 72
     1
 10
0.11981243272
 20
0.17845397247
 11
0.11981243272
 21
0.17857897399
 72
     1
 10
0.11981243272
 20
0.17857897399
 11
0.11981243272
 21
0.17872897581
 72
     1
 10
0.11981243272
 20
0.17872897581
 11
0.11956242968
 21
0.17845397247
 97
        1
330
17F
 92
        1
 93
        6
 72
     1
 10
0.11981243272
 20
0.17872897581
 11
0.11981243272
 21
0.17857897399
 72
     1
 10
0.11981243272
 20
0.17857897399
 11
0.11981243272
 21
0.17845397247
 72
     1
 10
0.11981243272
 20
0.17845397247
 11
0.12383748167
 21
0.17845397247
 72
     1
 10
0.12383748167
 20
0.17845397247
 11
0.12383748167
 21
0.17857897399
 72
     1
 10
0.12383748167
 20
0.17857897399
 11
0.12383748167
 21
0.17872897581
 72
     1
 10
0.12383748167
 20
0.17872897581
 11
0.11981243272
 21
0.17872897581
 97
        1
330
176
 92
        1
 93
        5
 72
     1
 10
0.12383748167
 20
0.17872897581
 11
0.12383748167
 21
0.17857897399
 72
     1
 10
0.12383748167
 20
0.17857897399
 11
0.12383748167
 21
0.17845397247
 72
     1
 10
0.12383748167
 20
0.17845397247
 11
0.12396248319
 21
0.17845397247
 72
     1
 10
0.12396248319
 20
0.17845397247
 11
0.12408748471
 21
0.17845397247
 72
     1
 10
0.12408748471
 20
0.17845397247
 11
0.12383748167
 21
0.17872897581
 97
        1
330
16E
 92
        1
 93
        6
 72
     1
 10
0.12408748471
 20
0.17845397247
 11
0.12396248319
 21
0.17845397247
 72
     1
 10
0.12396248319
 20
0.17845397247
 11
0.12383748167
 21
0.17845397247
 72
     1
 10
0.12383748167
 20
0.17845397247
 11
0.12383748167
 21
0.16935386181
 72
     1
 10
0.12383748167
 20
0.16935386181
 11
0.12396248319
 21
0.16935386181
 72
     1
 10
0.12396248319
 20
0.16935386181
 11
0.12408748471
 21
0.16935386181
 72
     1
 10
0.12408748471
 20
0.16935386181
 11
0.12408748471
 21
0.17845397247
 97
        1
330
165
 92
        1
 93
        6
 72
     1
 10
0.12408748471
 20
0.16935386181
 11
0.12396248319
 21
0.16935386181
 72
     1
 10
0.12396248319
 20
0.16935386181
 11
0.12383748167
 21
0.16935386181
 72
     1
 10
0.12383748167
 20
0.16935386181
 11
0.12383748167
 21
0.16022875085
 72
     1
 10
0.12383748167
 20
0.16022875085
 11
0.12396248319
 21
0.16022875085
 72
     1
 10
0.12396248319
 20
0.16022875085
 11
0.12408748471
 21
0.16022875085
 72
     1
 10
0.12408748471
 20
0.16022875085
 11
0.12408748471
 21
0.16935386181
 97
        1
330
15C
 92
        1
 93
        5
 72
     1
 10
0.12408748471
 20
0.15997874781
 11
0.12408748471
 21
0.16010374933
 72
     1
 10
0.12408748471
 20
0.16010374933
 11
0.12408748471
 21
0.16022875085
 72
     1
 10
0.12408748471
 20
0.16022875085
 11
0.12396248319
 21
0.16022875085
 72
     1
 10
0.12396248319
 20
0.16022875085
 11
0.12383748167
 21
0.16022875085
 72
     1
 10
0.12383748167
 20
0.16022875085
 11
0.12408748471
 21
0.15997874781
 97
        1
330
154
 92
        1
 93
        6
 72
     1
 10
0.12408748471
 20
0.16022875085
 11
0.12408748471
 21
0.16010374933
 72
     1
 10
0.12408748471
 20
0.16010374933
 11
0.12408748471
 21
0.15997874781
 72
     1
 10
0.12408748471
 20
0.15997874781
 11
0.12811253365
 21
0.15997874781
 72
     1
 10
0.12811253365
 20
0.15997874781
 11
0.12811253365
 21
0.16010374933
 72
     1
 10
0.12811253365
 20
0.16010374933
 11
0.12811253365
 21
0.16022875085
 72
     1
 10
0.12811253365
 20
0.16022875085
 11
0.12408748471
 21
0.16022875085
 97
        1
330
14B
 92
        1
 93
        5
 72
     1
 10
0.128387537
 20
0.16022875085
 11
0.12823753517
 21
0.16022875085
 72
     1
 10
0.12823753517
 20
0.16022875085
 11
0.12811253365
 21
0.16022875085
 72
     1
 10
0.12811253365
 20
0.16022875085
 11
0.12811253365
 21
0.16010374933
 72
     1
 10
0.12811253365
 20
0.16010374933
 11
0.12811253365
 21
0.15997874781
 72
     1
 10
0.12811253365
 20
0.15997874781
 11
0.128387537
 21
0.16022875085
 97
        1
330
143
 92
        1
 93
        6
 72
     1
 10
0.12811253365
 20
0.16022875085
 11
0.12823753517
 21
0.16022875085
 72
     1
 10
0.12823753517
 20
0.16022875085
 11
0.128387537
 21
0.16022875085
 72
     1
 10
0.128387537
 20
0.16022875085
 11
0.128387537
 21
0.16935386181
 72
     1
 10
0.128387537
 20
0.16935386181
 11
0.12823753517
 21
0.16935386181
 72
     1
 10
0.12823753517
 20
0.16935386181
 11
0.12811253365
 21
0.16935386181
 72
     1
 10
0.12811253365
 20
0.16935386181
 11
0.12811253365
 21
0.16022875085
 97
        1
330
13A
 92
        1
 93
        6
 72
     1
 10
0.12811253365
 20
0.16935386181
 11
0.12823753517
 21
0.16935386181
 72
     1
 10
0.12823753517
 20
0.16935386181
 11
0.128387537
 21
0.16935386181
 72
     1
 10
0.128387537
 20
0.16935386181
 11
0.128387537
 21
0.17845397247
 72
     1
 10
0.128387537
 20
0.17845397247
 11
0.12823753517
 21
0.17845397247
 72
     1
 10
0.12823753517
 20
0.17845397247
 11
0.12811253365
 21
0.17845397247
 72
     1
 10
0.12811253365
 20
0.17845397247
 11
0.12811253365
 21
0.16935386181
 97
        1
330
131
 92
        1
 93
        6
 72
     1
 10
0.12811253365
 20
0.17845397247
 11
0.12823753517
 21
0.17845397247
 72
     1
 10
0.12823753517
 20
0.17845397247
 11
0.128387537
 21
0.17845397247
 72
     1
 10
0.128387537
 20
0.17845397247
 11
0.128387537
 21
0.18147900925
 72
     1
 10
0.128387537
 20
0.18147900925
 11
0.12823753517
 21
0.18147900925
 72
     1
 10
0.12823753517
 20
0.18147900925
 11
0.12811253365
 21
0.18147900925
 72
     1
 10
0.12811253365
 20
0.18147900925
 11
0.12811253365
 21
0.17845397247
 97
        1
330
128
 92
        1
 93
        5
 72
     1
 10
0.10696227647
 20
0.15997874781
 11
0.10696227647
 21
0.16010374933
 72
     1
 10
0.10696227647
 20
0.16010374933
 11
0.10696227647
 21
0.16022875085
 72
     1
 10
0.10696227647
 20
0.16022875085
 11
0.10683727495
 21
0.16022875085
 72
     1
 10
0.10683727495
 20
0.16022875085
 11
0.10671227343
 21
0.16022875085
 72
     1
 10
0.10671227343
 20
0.16022875085
 11
0.10696227647
 21
0.15997874781
 97
        1
330
20C
 92
        1
 93
        6
 72
     1
 10
0.11098732541
 20
0.15997874781
 11
0.11098732541
 21
0.16010374933
 72
     1
 10
0.11098732541
 20
0.16010374933
 11
0.11098732541
 21
0.16022875085
 72
     1
 10
0.11098732541
 20
0.16022875085
 11
0.10696227647
 21
0.16022875085
 72
     1
 10
0.10696227647
 20
0.16022875085
 11
0.10696227647
 21
0.16010374933
 72
     1
 10
0.10696227647
 20
0.16010374933
 11
0.10696227647
 21
0.15997874781
 72
     1
 10
0.10696227647
 20
0.15997874781
 11
0.11098732541
 21
0.15997874781
 97
        1
330
1F7
 92
        1
 93
        6
 72
     1
 10
0.10671227343
 20
0.16022875085
 11
0.10683727495
 21
0.16022875085
 72
     1
 10
0.10683727495
 20
0.16022875085
 11
0.10696227647
 21
0.16022875085
 72
     1
 10
0.10696227647
 20
0.16022875085
 11
0.10696227647
 21
0.16935386181
 72
     1
 10
0.10696227647
 20
0.16935386181
 11
0.10683727495
 21
0.16935386181
 72
     1
 10
0.10683727495
 20
0.16935386181
 11
0.10671227343
 21
0.16935386181
 72
     1
 10
0.10671227343
 20
0.16935386181
 11
0.10671227343
 21
0.16022875085
 97
        1
330
214
 92
        1
 93
        5
 72
     1
 10
0.10671227343
 20
0.16960386485
 11
0.10671227343
 21
0.16947886333
 72
     1
 10
0.10671227343
 20
0.16947886333
 11
0.10671227343
 21
0.16935386181
 72
     1
 10
0.10671227343
 20
0.16935386181
 11
0.10683727495
 21
0.16935386181
 72
     1
 10
0.10683727495
 20
0.16935386181
 11
0.10696227647
 21
0.16935386181
 72
     1
 10
0.10696227647
 20
0.16935386181
 11
0.10671227343
 21
0.16960386485
 97
        1
330
21D
 75
     0
 76
     1
 98
        1
 10
0.0
 20
0.0
  0
HATCH
  5
47E
330
1E
100
AcDbEntity
  8
1
  6
Continuous
100
AcDbHatch
 10
0.0
 20
0.0
 30
0.0
210
0.0
220
0.0
230
1.0
  2
SOLID
 70
     1
 71
     1
 91
        8
 92
        1
 93
        6
 72
     1
 10
0.10803728954
 20
0.18277253826
 11
0.10668727312
 21
0.18277253826
 72
     1
 10
0.10668727312
 20
0.18277253826
 11
0.10533725671
 21
0.18277253826
 72
     1
 10
0.10533725671
 20
0.18277253826
 11
0.10533725671
 21
0.17312560076
 72
     1
 10
0.10533725671
 20
0.17312560076
 11
0.10668727312
 21
0.17312560076
 72
     1
 10
0.10668727312
 20
0.17312560076
 11
0.10803728954
 21
0.17312560076
 72
     1
 10
0.10803728954
 20
0.17312560076
 11
0.10803728954
 21
0.18277253826
 97
        1
330
241
 92
        1
 93
        5
 72
     1
 10
0.105937264
 20
0.1693630524
 11
0.10668727312
 21
0.1693630524
 72
     1
 10
0.10668727312
 20
0.1693630524
 11
0.10743728224
 21
0.1693630524
 72
     1
 10
0.10743728224
 20
0.1693630524
 11
0.10743728224
 21
0.17036306456
 72
     1
 10
0.10743728224
 20
0.17036306456
 11
0.105937264
 21
0.17036306456
 72
     1
 10
0.105937264
 20
0.17036306456
 11
0.105937264
 21
0.1693630524
 97
        1
330
225
 92
        1
 93
        5
 72
     1
 10
0.10327964559
 20
0.16936802676
 11
0.10327964559
 21
0.17011803588
 72
     1
 10
0.10327964559
 20
0.17011803588
 11
0.10327964559
 21
0.170868045
 72
     1
 10
0.10327964559
 20
0.170868045
 11
0.10225463312
 21
0.170868045
 72
     1
 10
0.10225463312
 20
0.170868045
 11
0.10225463312
 21
0.16936802676
 72
     1
 10
0.10225463312
 20
0.16936802676
 11
0.10327964559
 21
0.16936802676
 97
        1
330
391
 92
        1
 93
        5
 72
     1
 10
0.10053663551
 20
0.17118668975
 11
0.10128664463
 21
0.17118668975
 72
     1
 10
0.10128664463
 20
0.17118668975
 11
0.10203665375
 21
0.17118668975
 72
     1
 10
0.10203665375
 20
0.17118668975
 11
0.10203665375
 21
0.17218670191
 72
     1
 10
0.10203665375
 20
0.17218670191
 11
0.10053663551
 21
0.17218670191
 72
     1
 10
0.10053663551
 20
0.17218670191
 11
0.10053663551
 21
0.17118668975
 97
        1
330
389
 92
        1
 93
        5
 72
     1
 10
0.10203665375
 20
0.16905412022
 11
0.10128664463
 21
0.16905412022
 72
     1
 10
0.10128664463
 20
0.16905412022
 11
0.10053663551
 21
0.16905412022
 72
     1
 10
0.10053663551
 20
0.16905412022
 11
0.10053663551
 21
0.16805410806
 72
     1
 10
0.10053663551
 20
0.16805410806
 11
0.10203665375
 21
0.16805410806
 72
     1
 10
0.10203665375
 20
0.16805410806
 11
0.10203665375
 21
0.16905412022
 97
        1
330
379
 92
        1
 93
        5
 72
     1
 10
0.11553998564
 20
0.18225404174
 11
0.11553998564
 21
0.18300405086
 72
     1
 10
0.11553998564
 20
0.18300405086
 11
0.11553998564
 21
0.18375405998
 72
     1
 10
0.11553998564
 20
0.18375405998
 11
0.11451497318
 21
0.18375405998
 72
     1
 10
0.11451497318
 20
0.18375405998
 11
0.11451497318
 21
0.18225404174
 72
     1
 10
0.11451497318
 20
0.18225404174
 11
0.11553998564
 21
0.18225404174
 97
        1
330
85
 92
        1
 93
        5
 72
     1
 10
0.12396115839
 20
0.18225404174
 11
0.12396115839
 21
0.18300405086
 72
     1
 10
0.12396115839
 20
0.18300405086
 11
0.12396115839
 21
0.18375405998
 72
     1
 10
0.12396115839
 20
0.18375405998
 11
0.12293614592
 21
0.18375405998
 72
     1
 10
0.12293614592
 20
0.18375405998
 11
0.12293614592
 21
0.18225404174
 72
     1
 10
0.12293614592
 20
0.18225404174
 11
0.12396115839
 21
0.18225404174
 97
        1
330
A5
 92
        1
 93
        5
 72
     1
 10
0.12825195709
 20
0.18282902567
 11
0.12825195709
 21
0.18207901655
 72
     1
 10
0.12825195709
 20
0.18207901655
 11
0.12825195709
 21
0.18132900743
 72
     1
 10
0.12825195709
 20
0.18132900743
 11
0.12925196925
 21
0.18132900743
 72
     1
 10
0.12925196925
 20
0.18132900743
 11
0.12925196925
 21
0.18282902567
 72
     1
 10
0.12925196925
 20
0.18282902567
 11
0.12825195709
 21
0.18282902567
 97
        1
330
261
 75
     0
 76
     1
 98
        1
 10
0.0
 20
0.0
  0
HATCH
  5
4A8
330
1E
100
AcDbEntity
  8
1
  6
Continuous
100
AcDbHatch
 10
0.0
 20
0.0
 30
0.0
210
0.0
220
0.0
230
1.0
  2
SOLID
 70
     1
 71
     1
 91
        8
 92
        7
 72
     0
 73
     1
 93
        5
 10
0.10802517743
 20
0.18375589837
 10
0.10532777054
 20
0.18375589837
 10
0.10532777054
 20
0.18277253826
 10
0.10668727312
 20
0.18277253826
 10
0.10802517743
 20
0.18277253826
 97
        2
330
252
330
241
 92
        7
 72
     0
 73
     1
 93
        5
 10
0.10743728224
 20
0.17312560076
 10
0.10668727312
 20
0.17312560076
 10
0.105937264
 20
0.17312560076
 10
0.105937264
 20
0.17256309132
 10
0.10743728224
 20
0.17256309132
 97
        2
330
241
330
24A
 92
        7
 72
     0
 73
     1
 93
        6
 10
0.10639328914
 20
0.170868045
 10
0.10539327698
 20
0.170868045
 10
0.10539327698
 20
0.16936802676
 10
0.105937264
 20
0.16936802676
 10
0.105937264
 20
0.17036306456
 10
0.10639328914
 20
0.17036306456
 97
        2
330
4E
330
225
 92
        7
 72
     0
 73
     1
 93
        5
 10
0.11552552064
 20
0.18211456449
 10
0.11552552064
 20
0.18225404174
 10
0.11451497318
 20
0.18225404174
 10
0.11451497318
 20
0.18136455537
 10
0.11552552064
 20
0.18136455537
 97
        3
330
65
330
85
330
5D
 92
        7
 72
     0
 73
     1
 93
        5
 10
0.12394259587
 20
0.18211456449
 10
0.12394259587
 20
0.18225404174
 10
0.12293614592
 20
0.18225404174
 10
0.12293614592
 20
0.18136455537
 10
0.12394259587
 20
0.18136455537
 97
        3
330
11C
330
A5
330
7D
 92
        7
 72
     0
 73
     1
 93
        5
 10
0.1165255328
 20
0.18375405998
 10
0.11553998564
 20
0.18375405998
 10
0.11553998564
 20
0.18300405086
 10
0.11553998564
 20
0.18286457361
 10
0.1165255328
 20
0.18286457361
 97
        3
330
8D
330
85
330
65
 92
        7
 72
     0
 73
     1
 93
        5
 10
0.1165255328
 20
0.18225404174
 10
0.11553998564
 20
0.18225404174
 10
0.11553998564
 20
0.18211456449
 10
0.11553998564
 20
0.18136455537
 10
0.1165255328
 20
0.18136455537
 97
        3
330
8D
330
5D
330
65
 92
        7
 72
     0
 73
     1
 93
        4
 10
0.1165255328
 20
0.18286457361
 10
0.11553998564
 20
0.18286457361
 10
0.11553998564
 20
0.18225404174
 10
0.1165255328
 20
0.18225404174
 97
        3
330
65
330
85
330
8D
 75
     0
 76
     1
 47
0.0000407306912722
 98
        8
 10
0.1064843217852431
 20
0.1833371475157331
 10
0.10689178044595
 20
0.1727878983109142
 10
0.105750897097146
 20
0.1705884409117113
 10
0.1150002012283119
 20
0.1817893812471583
 10
0.123556826022494
 20
0.1819115732508177
 10
0.1160188465926859
 20
0.1834186088515061
 10
0.1161003385823059
 20
0.1819115732508177
 10
0.1160188465926859
 20
0.1826039950493322
  0
HATCH
  5
574
330
1E
100
AcDbEntity
  8
1
  6
Continuous
100
AcDbHatch
 10
0.0
 20
0.0
 30
0.0
210
0.0
220
0.0
230
1.0
  2
SOLID
 70
     1
 71
     1
 91
       12
 92
        7
 72
     0
 73
     1
 93
        5
 10
0.12494670554
 20
0.18375405998
 10
0.12396115839
 20
0.18375405998
 10
0.12396115839
 20
0.18300405086
 10
0.12396115839
 20
0.18286457361
 10
0.12494670554
 20
0.18286457361
 97
        3
330
AD
330
A5
330
11C
 92
        7
 72
     0
 73
     1
 93
        4
 10
0.12494260803
 20
0.18286457361
 10
0.12396115839
 20
0.18286457361
 10
0.12396115839
 20
0.18225404174
 10
0.12494260803
 20
0.18225404174
 97
        3
330
11C
330
A5
330
AD
 92
        7
 72
     0
 73
     1
 93
        5
 10
0.12494260803
 20
0.18225404174
 10
0.12396115839
 20
0.18225404174
 10
0.12396115839
 20
0.18211456449
 10
0.12396115839
 20
0.18136455537
 10
0.12494260803
 20
0.18136455537
 97
        3
330
AD
330
7D
330
11C
 92
        7
 72
     0
 73
     1
 93
        7
 10
0.12823753517
 20
0.18207901655
 10
0.12823753517
 20
0.18282902567
 10
0.12721252271
 20
0.18282902567
 10
0.12721252271
 20
0.18132900743
 10
0.12811253365
 20
0.18132900743
 10
0.12811253365
 20
0.18147900925
 10
0.12823753517
 20
0.18147900925
 97
        2
330
239
330
128
 92
        7
 72
     0
 73
     1
 93
       24
 10
0.11973610701
 20
0.18182534491
 10
0.11970457736
 20
0.18182534491
 10
0.11965457675
 20
0.18182534491
 10
0.11962957644
 20
0.18185034521
 10
0.11957957584
 20
0.18185034521
 10
0.11952957523
 20
0.18185034521
 10
0.11950457492
 20
0.18187534551
 10
0.11945457432
 20
0.1818753455099999
 10
0.11940457371
 20
0.18190034582
 10
0.1193795734
 20
0.18192534612
 10
0.1193295728000001
 20
0.18195034643
 10
0.1193045724899999
 20
0.1819753467300001
 10
0.11925457188
 20
0.18200034703
 10
0.11922957158
 20
0.18202534734
 10
0.11920457128
 20
0.18205034764
 10
0.11917957097
 20
0.18210034825
 10
0.11912957036
 20
0.1821253485500001
 10
0.11910457006
 20
0.18215034886
 10
0.11910457006
 20
0.18220034947
 10
0.1190795697599999
 20
0.18225035007
 10
0.11907587809
 20
0.18225404174
 10
0.11872555955
 20
0.18225404174
 10
0.11872555955
 20
0.18136455537
 10
0.11973610701
 20
0.18136455537
 97
        4
330
B5
330
95
330
6D
330
75
 92
        7
 72
     0
 73
     1
 93
       20
 10
0.12073611917
 20
0.18225404174
 10
0.120356431095
 20
0.18225404174
 10
0.12032958496
 20
0.18220034947
 10
0.12030458465
 20
0.18215034886
 10
0.12027958435
 20
0.18212534855
 10
0.12025458404
 20
0.18210034825
 10
0.12022125031
 20
0.1820336807766667
 10
0.12015458283
 20
0.18200034703
 10
0.1201295825199999
 20
0.1819753467299999
 10
0.12007958192
 20
0.18195034643
 10
0.12005458161
 20
0.18192534612
 10
0.120004581
 20
0.18190034582
 10
0.1199795807
 20
0.18187534551
 10
0.11992958009
 20
0.1818753455099999
 10
0.11987957948
 20
0.18185034521
 10
0.11985457918
 20
0.18185034521
 10
0.11980457857
 20
0.18185034521
 10
0.11975057202
 20
0.1818233419404006
 10
0.11975057202
 20
0.18136455537
 10
0.12073611917
 20
0.18136455537
 97
        4
330
9D
330
B5
330
6D
330
75
 92
        7
 72
     0
 73
     1
 93
       20
 10
0.12073611917
 20
0.18375405998
 10
0.11975057202
 20
0.18375405998
 10
0.11975057202
 20
0.1832523651995994
 10
0.11980457857
 20
0.18322536193
 10
0.11985457918
 20
0.18322536193
 10
0.11987957948
 20
0.18322536193
 10
0.11992958009
 20
0.18320036163
 10
0.1199795807
 20
0.1832003616299999
 10
0.1200045810000001
 20
0.1831753613199999
 10
0.1200545816100001
 20
0.18315036102
 10
0.12007958192
 20
0.18312536071
 10
0.12012958252
 20
0.1831003604099999
 10
0.1201545828299999
 20
0.18307536011
 10
0.12022125031
 20
0.1830420263633333
 10
0.12025458404
 20
0.1829753588900001
 10
0.12027958435
 20
0.18295035859
 10
0.12030458465
 20
0.18292535828
 10
0.1203295849599999
 20
0.18287535767
 10
0.12034036902
 20
0.18286457361
 10
0.12073611917
 20
0.1828645736099999
 97
        4
330
9D
330
95
330
B5
330
75
 92
        7
 72
     0
 73
     1
 93
       23
 10
0.11973610701
 20
0.18375405998
 10
0.11872555955
 20
0.18375405998
 10
0.11872555955
 20
0.18286457361
 10
0.119093786
 20
0.18286457361
 10
0.11910457006
 20
0.18287535767
 10
0.11910457006
 20
0.18292535828
 10
0.11912957036
 20
0.18295035859
 10
0.11917957097
 20
0.18297535889
 10
0.11920457128
 20
0.1830253595
 10
0.11922957158
 20
0.1830503598
 10
0.1192545718799999
 20
0.1830753601099999
 10
0.11930457249
 20
0.18310036041
 10
0.1193295728
 20
0.18312536071
 10
0.1193795734
 20
0.18315036102
 10
0.11940457371
 20
0.18317536132
 10
0.1194545743200001
 20
0.18320036163
 10
0.11950457492
 20
0.18320036163
 10
0.11952957523
 20
0.18322536193
 10
0.11957957584
 20
0.18322536193
 10
0.11962957644
 20
0.18322536193
 10
0.11965457675
 20
0.18325036223
 10
0.11970457736
 20
0.18325036223
 10
0.11973610701
 20
0.18325036223
 97
        4
330
95
330
6D
330
B5
330
9D
 92
        7
 72
     0
 73
     1
 93
       17
 10
0.11900456884
 20
0.18262535463
 10
0.11902956915
 20
0.18267535524
 10
0.11902956915
 20
0.18272535585
 10
0.11902956915
 20
0.18275035615
 10
0.11905456945
 20
0.18280035676
 10
0.1190866778814216
 20
0.18286457361
 10
0.11872555955
 20
0.18286457361
 10
0.11872555955
 20
0.18225404174
 10
0.11907587809
 20
0.18225404174
 10
0.1190545694499999
 20
0.1822753503799999
 10
0.11902956915
 20
0.18232535099
 10
0.11902956915
 20
0.18237535159
 10
0.11902956915
 20
0.1824003519
 10
0.11900456884
 20
0.1824503525099999
 10
0.11900456884
 20
0.18250035311
 10
0.11900456884
 20
0.18255035372
 10
0.11900456884
 20
0.18257535403
 97
        3
330
B5
330
6D
330
95
 92
        7
 72
     0
 73
     1
 93
       17
 10
0.12073611917
 20
0.18286457361
 10
0.12035458526
 20
0.18286457361
 10
0.12035458526
 20
0.1828003567599999
 10
0.12037958556
 20
0.18275035615
 10
0.12037958556
 20
0.18272535585
 10
0.12040458587
 20
0.1826753552400001
 10
0.12040458587
 20
0.18262535463
 10
0.12040458587
 20
0.18257535403
 10
0.12040458587
 20
0.18255035372
 10
0.12040458587
 20
0.18250035311
 10
0.12040458587
 20
0.18245035251
 10
0.12040458587
 20
0.1824003519
 10
0.12037958556
 20
0.18237535159
 10
0.12037958556
 20
0.1823253509899999
 10
0.12035458526
 20
0.18227535038
 10
0.12035458526
 20
0.18225404174
 10
0.12073611917
 20
0.18225404174
 97
        3
330
75
330
B5
330
9D
 92
        7
 72
     0
 73
     1
 93
       29
 10
0.1317756440500001
 20
0.1814540089499999
 10
0.1317256434400001
 20
0.18147900925
 10
0.13170064314
 20
0.18150400956
 10
0.1316339756666668
 20
0.1815373432899999
 10
0.13160064192
 20
0.1816040107700001
 10
0.13157564162
 20
0.18162901108
 10
0.13155064131
 20
0.1816540113799999
 10
0.13152564101
 20
0.1817040119900001
 10
0.1315006407100001
 20
0.18172901229
 10
0.1314756404
 20
0.1817790129000001
 10
0.131451996
 20
0.1818026573
 10
0.131451996
 20
0.18132900743
 10
0.13245200816
 20
0.18132900743
 10
0.13245200816
 20
0.1814546869001356
 10
0.13240065165
 20
0.18142900864
 10
0.13237565135
 20
0.18142900864
 10
0.13232565074
 20
0.18140400834
 10
0.13227565013
 20
0.18140400834
 10
0.13225064983
 20
0.18137900804
 10
0.13220064922
 20
0.18137900804
 10
0.13215064861
 20
0.18137900804
 10
0.132100648
 20
0.18137900804
 10
0.1320756477
 20
0.18137900804
 10
0.13202564709
 20
0.18137900804
 10
0.13197564648
 20
0.18137900804
 10
0.13192564587
 20
0.18140400834
 10
0.1319006455700001
 20
0.18140400834
 10
0.13185064496
 20
0.18142900864
 10
0.13180064435
 20
0.18142900864
 97
        2
330
269
330
259
 92
        7
 72
     0
 73
     1
 93
       31
 10
0.13180064435
 20
0.18270402415
 10
0.13185064496
 20
0.18272902445
 10
0.1319006455699999
 20
0.18275402476
 10
0.13192564587
 20
0.18275402476
 10
0.13197564648
 20
0.18275402476
 10
0.13202564709
 20
0.18277902506
 10
0.1320756477
 20
0.18277902506
 10
0.132100648
 20
0.18277902506
 10
0.13215064861
 20
0.18277902506
 10
0.13220064922
 20
0.18277902506
 10
0.13225064983
 20
0.18275402476
 10
0.13227565013
 20
0.18275402476
 10
0.13232565074
 20
0.18275402476
 10
0.13237565135
 20
0.18272902445
 10
0.13240065165
 20
0.18270402415
 10
0.13245065226
 20
0.18267902384
 10
0.13245200816
 20
0.18267902384
 10
0.13245200816
 20
0.18282902567
 10
0.131451996
 20
0.18282902567
 10
0.131451996
 20
0.1823317313905424
 10
0.1314756404
 20
0.1823790202
 10
0.13150064071
 20
0.1824040205
 10
0.13152564101
 20
0.18245402111
 10
0.13155064131
 20
0.18247902141
 10
0.13157564162
 20
0.18252902202
 10
0.13160064192
 20
0.18255402232
 10
0.13162564223
 20
0.18257902263
 10
0.13165064253
 20
0.18260402293
 10
0.13170064314
 20
0.18265402354
 10
0.13172564344
 20
0.18267902384
 10
0.13177564405
 20
0.18267902384
 97
        2
330
269
330
259
 75
     0
 76
     1
 47
0.0000407306912722
 98
       12
 10
0.1244939800409446
 20
0.1834593395193926
 10
0.1244532340461346
 20
0.1825632643814457
 10
0.1245347260357547
 20
0.1817079199113853
 10
0.1275499174214599
 20
0.1818708425829312
 10
0.1191562759628212
 20
0.1816264581311679
 10
0.1204601426471687
 20
0.1817893812471583
 10
0.1204193966523587
 20
0.183500070187279
 10
0.1191970219576313
 20
0.1834593395193926
 10
0.1188710552865444
 20
0.1825632643814457
 10
0.1205823799879021
 20
0.1825632643814457
 10
0.1315430094641223
 20
0.1814228047917356
 10
0.1315022634693124
 20
0.1826854563851051
  0
HATCH
  5
6F9
330
1E
100
AcDbEntity
  8
1
  6
Continuous
100
AcDbHatch
 10
0.0
 20
0.0
 30
0.0
210
0.0
220
0.0
230
1.0
  2
SOLID
 70
     1
 71
     1
 91
       11
 92
        7
 72
     0
 73
     1
 93
       30
 10
0.10081163886
 20
0.16498983741
 10
0.10078663855
 20
0.16501483771
 10
0.10076163825
 20
0.16506483832
 10
0.10071163764
 20
0.1650898386199999
 10
0.10068663734
 20
0.16511483893
 10
0.10068663734
 20
0.16516483953
 10
0.10066163703
 20
0.16521484014
 10
0.10063663673
 20
0.16523984045
 10
0.10061163642
 20
0.1652898410500001
 10
0.10061163642
 20
0.16533984166
 10
0.10061163642
 20
0.16536484197
 10
0.10058663612
 20
0.16541484257
 10
0.10058663612
 20
0.16546484318
 10
0.10058663612
 20
0.16551484379
 10
0.10058663612
 20
0.16553984409
 10
0.10058663612
 20
0.1655898447
 10
0.10061163642
 20
0.16563984531
 10
0.10061163642
 20
0.16568984592
 10
0.10061163642
 20
0.16571484622
 10
0.10063663673
 20
0.16576484683
 10
0.10066163703
 20
0.16581484744
 10
0.10068663734
 20
0.16583984774
 10
0.10068663734
 20
0.16585408131
 10
0.10053663551
 20
0.16585408131
 10
0.10053663551
 20
0.16485406915
 10
0.10099740772
 20
0.16485406915
 10
0.10096164068
 20
0.1648898361899999
 10
0.1009116400699999
 20
0.16491483649
 10
0.10088663977
 20
0.1649398368
 10
0.10083663916
 20
0.1649648371
 97
        2
330
409
330
371
 92
        7
 72
     0
 73
     1
 93
       30
 10
0.10203665375
 20
0.16585408131
 10
0.1019045354464234
 20
0.16585408131
 10
0.10191165223
 20
0.16583984774
 10
0.10193665254
 20
0.16581484744
 10
0.10193665254
 20
0.16576484683
 10
0.10196165284
 20
0.16571484622
 10
0.10196165284
 20
0.16568984592
 10
0.10198665314
 20
0.16563984531
 10
0.10198665314
 20
0.1655898447
 10
0.10198665314
 20
0.16553984409
 10
0.10198665314
 20
0.16551484379
 10
0.10198665314
 20
0.16546484318
 10
0.10198665314
 20
0.16541484257
 10
0.10198665314
 20
0.16536484197
 10
0.10196165284
 20
0.16533984166
 10
0.10196165284
 20
0.16528984105
 10
0.10193665254
 20
0.16523984045
 10
0.10193665254
 20
0.16521484014
 10
0.10191165223
 20
0.16516483953
 10
0.1018866519300001
 20
0.16511483893
 10
0.10186165162
 20
0.16508983862
 10
0.10183665132
 20
0.16506483832
 10
0.1018033175933333
 20
0.1649981708533333
 10
0.1017366501
 20
0.1649648371
 10
0.1017116498
 20
0.1649398368
 10
0.10166164919
 20
0.1649148364899999
 10
0.10163664889
 20
0.16488983619
 10
0.10158664828
 20
0.16486483589
 10
0.1015758815443066
 20
0.16485406915
 10
0.10203665375
 20
0.16485406915
 97
        2
330
371
330
409
 92
        7
 72
     1
 73
     1
 93
        2
 10
0.10098251032
 20
0.16549932355
 42
1.0
 10
0.10160639114
 20
0.16549932355
 42
1.0
 97
        1
330
470
 92
        7
 72
     0
 73
     1
 93
       30
 10
0.10203665375
 20
0.17541174112
 10
0.1015508812400001
 20
0.1754117411199999
 10
0.10158664828
 20
0.17537597408
 10
0.10163664889
 20
0.17537597408
 10
0.10166164919
 20
0.17535097378
 10
0.1017116498
 20
0.17532597347
 10
0.1017366501
 20
0.17530097317
 10
0.10178665071
 20
0.17525097256
 10
0.10181165102
 20
0.17522597226
 10
0.10183665132
 20
0.1752009719499999
 10
0.10186165162
 20
0.1751509713399999
 10
0.10188665193
 20
0.17512597104
 10
0.10191165223
 20
0.17510097074
 10
0.10193665254
 20
0.1750509701300001
 10
0.10193665254
 20
0.17500096952
 10
0.10196165284
 20
0.17497596922
 10
0.10196165284
 20
0.17492596861
 10
0.10198665314
 20
0.174875968
 10
0.10198665314
 20
0.17482596739
 10
0.10198665314
 20
0.17480096709
 10
0.10198665314
 20
0.17475096648
 10
0.10198665314
 20
0.17470096587
 10
0.10198665314
 20
0.17465096526
 10
0.10198665314
 20
0.17462596496
 10
0.10196165284
 20
0.17457596435
 10
0.10196165284
 20
0.17452596374
 10
0.10193665254
 20
0.17450096344
 10
0.10193665254
 20
0.17445096283
 10
0.1019170356010766
 20
0.17441172896
 10
0.10203665375
 20
0.17441172896
 97
        2
330
381
330
399
 92
        7
 72
     0
 73
     1
 93
       31
 10
0.10088663977
 20
0.17532597347
 10
0.10091164007
 20
0.17535097378
 10
0.10096164068
 20
0.17537597408
 10
0.10098664098
 20
0.17537597408
 10
0.10103664159
 20
0.17540097438
 10
0.1010581750656933
 20
0.17541174112
 10
0.10053663551
 20
0.17541174112
 10
0.10053663551
 20
0.17441172896
 10
0.1006812539689234
 20
0.17441172896
 10
0.10066163703
 20
0.17445096283
 10
0.10063663673
 20
0.17450096344
 10
0.10061163642
 20
0.17452596374
 10
0.10061163642
 20
0.17457596435
 10
0.10061163642
 20
0.17462596496
 10
0.10058663612
 20
0.17465096526
 10
0.10058663612
 20
0.17470096587
 10
0.10058663612
 20
0.17475096648
 10
0.10058663612
 20
0.17480096709
 10
0.10058663612
 20
0.1748259673899999
 10
0.10061163642
 20
0.174875968
 10
0.10061163642
 20
0.17492596861
 10
0.10061163642
 20
0.17497596922
 10
0.10063663673
 20
0.17500096952
 10
0.10066163703
 20
0.17505097013
 10
0.10068663734
 20
0.17510097074
 10
0.10068663734
 20
0.17512597104
 10
0.10071163764
 20
0.17515097134
 10
0.10076163825
 20
0.17520097195
 10
0.10078663855
 20
0.17522597226
 10
0.10081163886
 20
0.17525097256
 10
0.10083663916
 20
0.17530097317
 97
        2
330
399
330
381
 92
        7
 72
     1
 73
     1
 93
        2
 10
0.10095131627
 20
0.17474027137
 42
1.0
 10
0.10157519709
 20
0.17474027137
 42
1.0
 97
        1
330
408
 92
        7
 72
     1
 73
     1
 93
        2
 10
0.13244793003
 20
0.18207905959
 42
1.0
 10
0.13182404921
 20
0.18207905959
 42
1.0
 97
        1
330
2D8
 92
        7
 72
     0
 73
     1
 93
        5
 10
0.12494260803
 20
0.18225404174
 10
0.12396115839
 20
0.18225404174
 10
0.12396115839
 20
0.18211456449
 10
0.12396115839
 20
0.18136455537
 10
0.12494260803
 20
0.18136455537
 97
        3
330
AD
330
7D
330
11C
 92
        7
 72
     0
 73
     1
 93
        4
 10
0.12494260803
 20
0.18286457361
 10
0.12396115839
 20
0.18286457361
 10
0.12396115839
 20
0.18225404174
 10
0.12494260803
 20
0.18225404174
 97
        3
330
11C
330
A5
330
AD
 92
        7
 72
     1
 73
     1
 93
        4
 10
0.11973610701
 20
0.1828562901527322
 42
0.4375651871599878
 10
0.11939952894
 20
0.18254532423
 42
0.3106580073516362
 10
0.1195998390207414
 20
0.18225404174
 42
0.0
 10
0.11973610701
 20
0.18225404174
 42
0.0
 97
        3
330
124
330
95
330
9D
 92
        7
 72
     1
 73
     1
 93
        4
 10
0.11975057202
 20
0.1828548041172138
 42
0.0
 10
0.11975057202
 20
0.18225404174
 42
0.0
 10
0.1198230996792586
 20
0.18225404174
 42
0.3106580073516362
 10
0.12002340976
 20
0.18254532423
 42
0.377862816206634
 97
        3
330
95
330
9D
330
124
 75
     0
 76
     1
 47
0.0000407306912722
 98
       19
 10
0.101961534384837
 20
0.1752724703853225
 10
0.1006576677004894
 20
0.1752724703853225
 10
0.1001279716990492
 20
0.1707513635832571
 10
0.1001687176938591
 20
0.1694887119898876
 10
0.1001687176938591
 20
0.1694887119898876
 10
0.1001687176938591
 20
0.1707920942511436
 10
0.1001687176938591
 20
0.1694887119898876
 10
0.1001687176938591
 20
0.1694887119898876
 10
0.1006576677004894
 20
0.1649676051878223
 10
0.1019207883900269
 20
0.1649676051878223
 10
0.1012688550478532
 20
0.1654971043147909
 10
0.1019207883900269
 20
0.1753132010532089
 10
0.1006576677004894
 20
0.1753132010532089
 10
0.1012281096967398
 20
0.1747837019262403
 10
0.1321541968114861
 20
0.1819930345865907
 10
0.124616217381678
 20
0.1819115732508177
 10
0.1246977093712981
 20
0.1826447257172187
 10
0.1196044799746415
 20
0.1825632643814457
 10
0.119848955299805
 20
0.1825632643814457
  0
LWPOLYLINE
  5
741
102
{ACAD_REACTORS
330
785
330
7F4
102
}
330
1E
100
AcDbEntity
  8
LY1
  6
Continuous
 62
     7
100
AcDbPolyline
 90
      101
 70
     0
 43
0.0
 10
0.0999684455266219
 20
0.170150410084049
 10
0.0999684455266219
 20
0.170200410694049
 10
0.0999684455266219
 20
0.170225410994049
 10
0.0999434452166219
 20
0.170275411604049
 10
0.0999434452166219
 20
0.170325412214049
 10
0.0999184449166219
 20
0.170375412824049
 10
0.0999184449166219
 20
0.170400413124049
 10
0.0998934446066219
 20
0.170450413734049
 10
0.0998684443066219
 20
0.170475414034049
 10
0.0998434440066219
 20
0.170525414644049
 10
0.0998184436966219
 20
0.170550414954049
 10
0.0997934433966219
 20
0.170600415554049
 10
0.0997684430866219
 20
0.170625415864049
 10
0.0997434427866219
 20
0.170650416164049
 10
0.0997184424866219
 20
0.170700416774049
 10
0.0996684418766219
 20
0.170725417074049
 10
0.0996434415666219
 20
0.170750417384049
 10
0.0995934409666219
 20
0.170775417684049
 10
0.0995684406566219
 20
0.170775417684049
 10
0.0995184400466219
 20
0.170800417994049
 10
0.0994684394466219
 20
0.170825418294049
 10
0.0994434391366219
 20
0.170825418294049
 10
0.0993934385266219
 20
0.170850418594049
 10
0.0993434379266219
 20
0.170850418594049
 10
0.0992934373166219
 20
0.170850418594049
 10
0.0992684370066219
 20
0.170850418594049
 10
0.0992184364066219
 20
0.170850418594049
 10
0.0991684357966219
 20
0.170850418594049
 10
0.0991184351866219
 20
0.170850418594049
 10
0.0990934348866219
 20
0.170825418294049
 10
0.0990434342766219
 20
0.170825418294049
 10
0.0989934336666219
 20
0.170800417994049
 10
0.0989684333666219
 20
0.170775417684049
 10
0.0989184327566219
 20
0.170775417684049
 10
0.0988934324466219
 20
0.170750417384049
 10
0.0988434318466219
 20
0.170725417074049
 10
0.0988184315366219
 20
0.170700416774049
 10
0.0987684309266219
 20
0.170650416164049
 10
0.0987434306266219
 20
0.170625415864049
 10
0.0987184303266219
 20
0.170600415554049
 10
0.0986934300166219
 20
0.170550414954049
 10
0.0986684297166219
 20
0.170525414644049
 10
0.0986434294066219
 20
0.170475414034049
 10
0.0986184291066219
 20
0.170450413734049
 10
0.0985934288066219
 20
0.170400413124049
 10
0.0985934288066219
 20
0.170375412824049
 10
0.0985684284966219
 20
0.170325412214049
 10
0.0985684284966219
 20
0.170275411604049
 10
0.0985684284966219
 20
0.170225410994049
 10
0.0985684284966219
 20
0.170200410694049
 10
0.0985684284966219
 20
0.170150410084049
 10
0.0985684284966219
 20
0.170100409474049
 10
0.0985684284966219
 20
0.170050408874049
 10
0.0985684284966219
 20
0.170025408564049
 10
0.0985684284966219
 20
0.169975407954049
 10
0.0985934288066219
 20
0.169925407354049
 10
0.0985934288066219
 20
0.169900407044049
 10
0.0986184291066219
 20
0.169850406434049
 10
0.0986434294066219
 20
0.169800405834049
 10
0.0986684297166219
 20
0.169775405524049
 10
0.0986934300166219
 20
0.169725404914049
 10
0.0987184303266219
 20
0.169700404614049
 10
0.0987434306266219
 20
0.169675404314049
 10
0.0987684309266219
 20
0.169625403704049
 10
0.0988184315366219
 20
0.169600403394049
 10
0.0988434318466219
 20
0.169575403094049
 10
0.0988934324466219
 20
0.169550402794049
 10
0.0989184327566219
 20
0.169525402484049
 10
0.0989684333666219
 20
0.169500402184049
 10
0.0989934336666219
 20
0.169500402184049
 10
0.0990434342766219
 20
0.169475401874049
 10
0.0990934348866219
 20
0.169475401874049
 10
0.0991184351866219
 20
0.169450401574049
 10
0.0991684357966219
 20
0.169450401574049
 10
0.0992184364066219
 20
0.169450401574049
 10
0.0992684370066219
 20
0.169450401574049
 10
0.0992934373166219
 20
0.169450401574049
 10
0.0993434379266219
 20
0.169450401574049
 10
0.0993934385266219
 20
0.169450401574049
 10
0.0994434391366219
 20
0.169475401874049
 10
0.0994684394466219
 20
0.169475401874049
 10
0.0995184400466219
 20
0.169500402184049
 10
0.0995684406566219
 20
0.169500402184049
 10
0.0995934409666219
 20
0.169525402484049
 10
0.0996434415666219
 20
0.169550402794049
 10
0.0996684418766219
 20
0.169575403094049
 10
0.0997184424866219
 20
0.169600403394049
 10
0.0997434427866219
 20
0.169625403704049
 10
0.0997684430866219
 20
0.169675404314049
 10
0.0997934433966219
 20
0.169700404614049
 10
0.0998184436966219
 20
0.169725404914049
 10
0.0998434440066219
 20
0.169775405524049
 10
0.0998684443066219
 20
0.169800405834049
 10
0.0998934446066219
 20
0.169850406434049
 10
0.0999184449166219
 20
0.169900407044049
 10
0.0999184449166219
 20
0.169925407354049
 10
0.0999434452166219
 20
0.169975407954049
 10
0.0999434452166219
 20
0.170025408564049
 10
0.0999684455266219
 20
0.170050408874049
 10
0.0999684455266219
 20
0.170100409474049
 10
0.0999684455266219
 20
0.170150410084049
  0
CIRCLE
  5
742
102
{ACAD_REACTORS
330
785
330
7F4
102
}
330
1E
100
AcDbEntity
  8
LY1
 62
     7
100
AcDbCircle
 10
0.0992424610066219
 20
0.170146081814049
 30
0.0
 40
0.00031194041
  0
HATCH
  5
785
330
1E
100
AcDbEntity
  8
1
  6
Continuous
100
AcDbHatch
 10
0.0
 20
0.0
 30
0.0
210
0.0
220
0.0
230
1.0
  2
SOLID
 70
     1
 71
     1
 91
        3
 92
        7
 72
     0
 73
     1
 93
       57
 10
0.1002378653718515
 20
0.1708749387779842
 10
0.0992378532118515
 20
0.1708749387779842
 10
0.0992378532118515
 20
0.170850418594049
 10
0.0992684370066219
 20
0.170850418594049
 10
0.0992934373166219
 20
0.170850418594049
 10
0.0993434379266219
 20
0.170850418594049
 10
0.099393438526622
 20
0.170850418594049
 10
0.099443439136622
 20
0.170825418294049
 10
0.0994684394466219
 20
0.170825418294049
 10
0.0995184400466219
 20
0.170800417994049
 10
0.0995684406566219
 20
0.170775417684049
 10
0.099593440966622
 20
0.170775417684049
 10
0.0996434415666218
 20
0.1707504173840491
 10
0.099668441876622
 20
0.1707254170740489
 10
0.0997184424866219
 20
0.170700416774049
 10
0.0997434427866219
 20
0.170650416164049
 10
0.0997684430866219
 20
0.170625415864049
 10
0.099793443396622
 20
0.1706004155540489
 10
0.0998184436966219
 20
0.1705504149540491
 10
0.0998434440066219
 20
0.170525414644049
 10
0.099868444306622
 20
0.170475414034049
 10
0.0998934446066219
 20
0.170450413734049
 10
0.0999184449166219
 20
0.170400413124049
 10
0.0999184449166219
 20
0.1703754128240491
 10
0.0999434452166219
 20
0.1703254122140489
 10
0.0999434452166219
 20
0.170275411604049
 10
0.0999684455266219
 20
0.170225410994049
 10
0.0999684455266219
 20
0.170200410694049
 10
0.0999684455266219
 20
0.170150410084049
 10
0.0999684455266219
 20
0.170100409474049
 10
0.0999684455266219
 20
0.170050408874049
 10
0.0999434452166219
 20
0.170025408564049
 10
0.0999434452166219
 20
0.169975407954049
 10
0.0999184449166219
 20
0.169925407354049
 10
0.0999184449166219
 20
0.169900407044049
 10
0.0998934446066219
 20
0.169850406434049
 10
0.0998684443066219
 20
0.169800405834049
 10
0.099843444006622
 20
0.1697754055240491
 10
0.0998184436966219
 20
0.169725404914049
 10
0.0997934433966219
 20
0.169700404614049
 10
0.0997684430866219
 20
0.1696754043140489
 10
0.0997434427866219
 20
0.169625403704049
 10
0.0997184424866219
 20
0.1696004033940489
 10
0.099668441876622
 20
0.169575403094049
 10
0.0996434415666219
 20
0.169550402794049
 10
0.0995934409666219
 20
0.169525402484049
 10
0.0995684406566219
 20
0.169500402184049
 10
0.0995184400466219
 20
0.169500402184049
 10
0.0994684394466219
 20
0.169475401874049
 10
0.099443439136622
 20
0.169475401874049
 10
0.0993934385266219
 20
0.169450401574049
 10
0.0993434379266219
 20
0.169450401574049
 10
0.0992934373166219
 20
0.169450401574049
 10
0.0992684370066219
 20
0.169450401574049
 10
0.0992378532118515
 20
0.169450401574049
 10
0.0992378532118515
 20
0.1693749205379842
 10
0.1002378653718515
 20
0.1693749205379842
 97
        2
330
2F1
330
741
 92
        7
 72
     1
 73
     1
 93
        4
 10
0.0992378532118515
 20
0.1704579881904159
 42
0.0
 10
0.0992378532118515
 20
0.1701249296579842
 42
0.0
 10
0.0992378532118515
 20
0.1698341754376821
 42
0.4185468091186215
 10
0.0995544014166219
 20
0.170146081814049
 42
0.4185468091186215
 97
        2
330
2F1
330
742
 92
        7
 72
     1
 73
     1
 93
        4
 10
0.0992378532118515
 20
0.1704579881904159
 42
0.4098935524324695
 10
0.0989305205966219
 20
0.170146081814049
 42
0.4098935524324695
 10
0.0992378532118515
 20
0.1698341754376821
 42
0.0
 10
0.0992378532118515
 20
0.1701249296579842
 42
0.0
 97
        2
330
742
330
2F1
 75
     0
 76
     1
 47
0.0000149133988727
 98
        3
 10
0.100060323048519
 20
0.1696293626607664
 10
0.0993591327550837
 20
0.1701513315652873
 10
0.0990607542765966
 20
0.1702109853448516
  0
HATCH
  5
7F4
330
1E
100
AcDbEntity
  8
1
  6
Continuous
 62
     9
100
AcDbHatch
 10
0.0
 20
0.0
 30
0.0
210
0.0
220
0.0
230
1.0
  2
SOLID
 70
     1
 71
     1
 91
        2
 92
        7
 72
     1
 73
     1
 93
       53
 10
0.0992378532118515
 20
0.1704579881904159
 42
0.0
 10
0.0992378532118515
 20
0.1708504185940489
 42
0.0
 10
0.0992184364066219
 20
0.170850418594049
 42
0.0
 10
0.0991684357966219
 20
0.170850418594049
 42
0.0
 10
0.0991184351866219
 20
0.170850418594049
 42
0.0
 10
0.0990934348866219
 20
0.170825418294049
 42
0.0
 10
0.099043434276622
 20
0.170825418294049
 42
0.0
 10
0.0989934336666219
 20
0.170800417994049
 42
0.0
 10
0.0989684333666219
 20
0.170775417684049
 42
0.0
 10
0.0989184327566219
 20
0.170775417684049
 42
0.0
 10
0.0988934324466219
 20
0.170750417384049
 42
0.0
 10
0.0988434318466219
 20
0.170725417074049
 42
0.0
 10
0.0988184315366219
 20
0.170700416774049
 42
0.0
 10
0.0987684309266219
 20
0.170650416164049
 42
0.0
 10
0.0987434306266219
 20
0.170625415864049
 42
0.0
 10
0.0987184303266219
 20
0.1706004155540489
 42
0.0
 10
0.0986934300166219
 20
0.170550414954049
 42
0.0
 10
0.0986684297166219
 20
0.170525414644049
 42
0.0
 10
0.0986434294066219
 20
0.170475414034049
 42
0.0
 10
0.0986184291066219
 20
0.170450413734049
 42
0.0
 10
0.0985934288066219
 20
0.170400413124049
 42
0.0
 10
0.0985934288066219
 20
0.1703754128240491
 42
0.0
 10
0.0985684284966219
 20
0.1703254122140489
 42
0.0
 10
0.0985684284966219
 20
0.170275411604049
 42
0.0
 10
0.0985684284966219
 20
0.170225410994049
 42
0.0
 10
0.0985684284966219
 20
0.170200410694049
 42
0.0
 10
0.0985684284966219
 20
0.170150410084049
 42
0.0
 10
0.0985684284966219
 20
0.170100409474049
 42
0.0
 10
0.0985684284966219
 20
0.170050408874049
 42
0.0
 10
0.0985684284966219
 20
0.170025408564049
 42
0.0
 10
0.0985684284966219
 20
0.169975407954049
 42
0.0
 10
0.0985934288066219
 20
0.169925407354049
 42
0.0
 10
0.0985934288066219
 20
0.169900407044049
 42
0.0
 10
0.0986184291066219
 20
0.169850406434049
 42
0.0
 10
0.098643429406622
 20
0.169800405834049
 42
0.0
 10
0.0986684297166219
 20
0.169775405524049
 42
0.0
 10
0.0986934300166219
 20
0.1697254049140491
 42
0.0
 10
0.0987184303266219
 20
0.169700404614049
 42
0.0
 10
0.098743430626622
 20
0.169675404314049
 42
0.0
 10
0.098768430926622
 20
0.1696254037040489
 42
0.0
 10
0.0988184315366218
 20
0.169600403394049
 42
0.0
 10
0.0988434318466219
 20
0.169575403094049
 42
0.0
 10
0.0988934324466219
 20
0.1695504027940491
 42
0.0
 10
0.0989184327566218
 20
0.169525402484049
 42
0.0
 10
0.0989684333666219
 20
0.169500402184049
 42
0.0
 10
0.098993433666622
 20
0.169500402184049
 42
0.0
 10
0.0990434342766219
 20
0.169475401874049
 42
0.0
 10
0.0990934348866219
 20
0.169475401874049
 42
0.0
 10
0.0991184351866219
 20
0.169450401574049
 42
0.0
 10
0.0991684357966219
 20
0.169450401574049
 42
0.0
 10
0.0992378532118515
 20
0.169450401574049
 42
0.0
 10
0.0992378532118515
 20
0.1698341754376821
 42
-0.4098935524324695
 10
0.0989305205966219
 20
0.170146081814049
 42
-0.4098935524324695
 97
        3
330
2F1
330
741
330
742
 92
        7
 72
     1
 73
     1
 93
       56
 10
0.0999684455266219
 20
0.170200410694049
 42
0.0
 10
0.0999684455266219
 20
0.1702254109940489
 42
0.0
 10
0.0999434452166219
 20
0.170275411604049
 42
0.0
 10
0.0999434452166219
 20
0.170325412214049
 42
0.0
 10
0.0999184449166219
 20
0.1703754128240491
 42
0.0
 10
0.0999184449166219
 20
0.170400413124049
 42
0.0
 10
0.0998934446066219
 20
0.1704504137340491
 42
0.0
 10
0.0998684443066219
 20
0.170475414034049
 42
0.0
 10
0.099843444006622
 20
0.1705254146440489
 42
0.0
 10
0.0998184436966219
 20
0.170550414954049
 42
0.0
 10
0.0997934433966219
 20
0.170600415554049
 42
0.0
 10
0.0997684430866219
 20
0.170625415864049
 42
0.0
 10
0.0997434427866219
 20
0.1706504161640491
 42
0.0
 10
0.099718442486622
 20
0.1707004167740489
 42
0.0
 10
0.0996684418766219
 20
0.170725417074049
 42
0.0
 10
0.0996434415666217
 20
0.1707504173840491
 42
0.0
 10
0.0995934409666219
 20
0.170775417684049
 42
0.0
 10
0.0995684406566219
 20
0.170775417684049
 42
0.0
 10
0.0995184400466219
 20
0.170800417994049
 42
0.0
 10
0.0994684394466219
 20
0.170825418294049
 42
0.0
 10
0.099443439136622
 20
0.170825418294049
 42
0.0
 10
0.0993934385266219
 20
0.170850418594049
 42
0.0
 10
0.0993434379266219
 20
0.170850418594049
 42
0.0
 10
0.0992934373166219
 20
0.170850418594049
 42
0.0
 10
0.0992684370066219
 20
0.170850418594049
 42
0.0
 10
0.0992378532118515
 20
0.170850418594049
 42
0.0
 10
0.0992378532118515
 20
0.1704579881904159
 42
-0.4185468091186215
 10
0.0995544014166219
 20
0.170146081814049
 42
-0.4185468091186215
 10
0.0992378532118515
 20
0.1698341754376821
 42
0.0
 10
0.0992378532118515
 20
0.169450401574049
 42
0.0
 10
0.0992684370066219
 20
0.169450401574049
 42
0.0
 10
0.0992934373166219
 20
0.169450401574049
 42
0.0
 10
0.0993434379266219
 20
0.169450401574049
 42
0.0
 10
0.0993934385266219
 20
0.169450401574049
 42
0.0
 10
0.0994434391366219
 20
0.169475401874049
 42
0.0
 10
0.099468439446622
 20
0.169475401874049
 42
0.0
 10
0.0995184400466219
 20
0.169500402184049
 42
0.0
 10
0.0995684406566219
 20
0.169500402184049
 42
0.0
 10
0.0995934409666219
 20
0.169525402484049
 42
0.0
 10
0.099643441566622
 20
0.1695504027940491
 42
0.0
 10
0.099668441876622
 20
0.169575403094049
 42
0.0
 10
0.0997184424866219
 20
0.169600403394049
 42
0.0
 10
0.0997434427866219
 20
0.169625403704049
 42
0.0
 10
0.0997684430866219
 20
0.169675404314049
 42
0.0
 10
0.0997934433966219
 20
0.169700404614049
 42
0.0
 10
0.0998184436966219
 20
0.169725404914049
 42
0.0
 10
0.0998434440066219
 20
0.169775405524049
 42
0.0
 10
0.0998684443066219
 20
0.169800405834049
 42
0.0
 10
0.0998934446066219
 20
0.169850406434049
 42
0.0
 10
0.0999184449166219
 20
0.169900407044049
 42
0.0
 10
0.0999184449166219
 20
0.169925407354049
 42
0.0
 10
0.0999434452166219
 20
0.1699754079540491
 42
0.0
 10
0.0999434452166219
 20
0.170025408564049
 42
0.0
 10
0.0999684455266219
 20
0.170050408874049
 42
0.0
 10
0.0999684455266219
 20
0.170100409474049
 42
0.0
 10
0.0999684455266219
 20
0.170150410084049
 42
0.0
 97
        3
330
741
330
2F1
330
742
 75
     0
 76
     1
 47
0.0000404210026778
 98
        2
 10
0.0987685018586562
 20
0.1702114049004197
 10
0.0997389665324847
 20
0.1701709840103203
  0
HATCH
  5
99E
330
1E
100
AcDbEntity
  8
1
  6
Continuous
 62
     9
100
AcDbHatch
 10
0.0
 20
0.0
 30
0.0
210
0.0
220
0.0
230
1.0
  2
SOLID
 70
     1
 71
     1
 91
       17
 92
        7
 72
     0
 73
     1
 93
       35
 10
0.10181165102
 20
0.1742759607
 10
0.10183665132
 20
0.17430096101
 10
0.10186165162
 20
0.17432596131
 10
0.10188665193
 20
0.17437596192
 10
0.10191165223
 20
0.17440096222
 10
0.1019170356010766
 20
0.17441172896
 10
0.10068663734
 20
0.17441172896
 10
0.10068663734
 20
0.1743759619200001
 10
0.10071163764
 20
0.17432596131
 10
0.1007783051044444
 20
0.1742926275844444
 10
0.10081163886
 20
0.1742259601
 10
0.10083663916
 20
0.17420095979
 10
0.1008866397699999
 20
0.1741759594900001
 10
0.10091164007
 20
0.1741509591799999
 10
0.10096164068
 20
0.17412595888
 10
0.10098664098
 20
0.17410095858
 10
0.1010366415899999
 20
0.17410095858
 10
0.1010866422
 20
0.17407595827
 10
0.1011116425
 20
0.17407595827
 10
0.10116164311
 20
0.17405095797
 10
0.10121164372
 20
0.17405095797
 10
0.10123664402
 20
0.17405095797
 10
0.10128664463
 20
0.17405095797
 10
0.10133664524
 20
0.17405095797
 10
0.10138664585
 20
0.17405095797
 10
0.10143664646
 20
0.17405095797
 10
0.10146164676
 20
0.17407595827
 10
0.10151164737
 20
0.17407595827
 10
0.10156164798
 20
0.17410095858
 10
0.10158664828
 20
0.17410095858
 10
0.10163664889
 20
0.17412595888
 10
0.10166164919
 20
0.1741509591799999
 10
0.1017116498
 20
0.17417595949
 10
0.1017366501
 20
0.17420095979
 10
0.10178665071
 20
0.1742259601
 97
        2
330
399
330
381
 92
        7
 72
     0
 73
     1
 93
       59
 10
0.10193665254
 20
0.17505097013
 10
0.10191165223
 20
0.17510097074
 10
0.10188665193
 20
0.17512597104
 10
0.10186165162
 20
0.1751509713399999
 10
0.10183665132
 20
0.1752009719500001
 10
0.10181165102
 20
0.17522597226
 10
0.10178665071
 20
0.17525097256
 10
0.1017366501
 20
0.17530097317
 10
0.1017116498
 20
0.17532597347
 10
0.10166164919
 20
0.17535097378
 10
0.10163664889
 20
0.17537597408
 10
0.10158664828
 20
0.1753759740799999
 10
0.1015616479799999
 20
0.17540097438
 10
0.1015401145043066
 20
0.17541174112
 10
0.10128664463
 20
0.17541174112
 10
0.1010581750656933
 20
0.17541174112
 10
0.10103664159
 20
0.17540097438
 10
0.1009866409799999
 20
0.17537597408
 10
0.1009616406799999
 20
0.17537597408
 10
0.10091164007
 20
0.17535097378
 10
0.10088663977
 20
0.17532597347
 10
0.10083663916
 20
0.17530097317
 10
0.10081163886
 20
0.17525097256
 10
0.10078663855
 20
0.17522597226
 10
0.10076163825
 20
0.17520097195
 10
0.10071163764
 20
0.17515097134
 10
0.10068663734
 20
0.17512597104
 10
0.10068663734
 20
0.17510097074
 10
0.10066163703
 20
0.17505097013
 10
0.10063663673
 20
0.1750009695199999
 10
0.10061163642
 20
0.17497596922
 10
0.10061163642
 20
0.17492596861
 10
0.10061163642
 20
0.174875968
 10
0.10058663612
 20
0.1748259673899999
 10
0.10058663612
 20
0.17480096709
 10
0.10058663612
 20
0.17475096648
 10
0.10058663612
 20
0.17470096587
 10
0.10058663612
 20
0.17465096526
 10
0.10061163642
 20
0.17462596496
 10
0.10061163642
 20
0.17457596435
 10
0.10061163642
 20
0.17452596374
 10
0.10063663673
 20
0.17450096344
 10
0.10066163703
 20
0.17445096283
 10
0.1006812539689234
 20
0.17441172896
 10
0.1019170356010766
 20
0.17441172896
 10
0.10193665254
 20
0.17445096283
 10
0.10193665254
 20
0.1745009634400001
 10
0.10196165284
 20
0.17452596374
 10
0.10196165284
 20
0.17457596435
 10
0.10198665314
 20
0.17462596496
 10
0.10198665314
 20
0.17465096526
 10
0.10198665314
 20
0.17470096587
 10
0.10198665314
 20
0.17475096648
 10
0.10198665314
 20
0.17480096709
 10
0.10198665314
 20
0.17482596739
 10
0.10198665314
 20
0.174875968
 10
0.10196165284
 20
0.17492596861
 10
0.10196165284
 20
0.17497596922
 10
0.10193665254
 20
0.17500096952
 97
        2
330
399
330
381
 92
       22
 72
     1
 73
     1
 93
        2
 10
0.10157519709
 20
0.17474027137
 42
-1.0
 10
0.10095131627
 20
0.17474027137
 42
-1.0
 97
        1
330
408
 92
       22
 72
     0
 73
     1
 93
        5
 10
0.10126164433
 20
0.17507538451
 10
0.10126164433
 20
0.1751003848099999
 10
0.10131164494
 20
0.17510038481
 10
0.10131164494
 20
0.17507538451
 10
0.10128664463
 20
0.17507538451
 97
        1
330
400
 92
        7
 72
     0
 73
     1
 93
       58
 10
0.10198665314
 20
0.16553984409
 10
0.10198665314
 20
0.1655898447
 10
0.10198665314
 20
0.16563984531
 10
0.10196165284
 20
0.1656898459199999
 10
0.10196165284
 20
0.1657148462200001
 10
0.10193665254
 20
0.1657648468300001
 10
0.10193665254
 20
0.16581484744
 10
0.1018974186543067
 20
0.16585408131
 10
0.1007008709156933
 20
0.16585408131
 10
0.10066163703
 20
0.16581484744
 10
0.10063663673
 20
0.16576484683
 10
0.10061163642
 20
0.16571484622
 10
0.10061163642
 20
0.16568984592
 10
0.10061163642
 20
0.16563984531
 10
0.10058663612
 20
0.1655898447
 10
0.10058663612
 20
0.16553984409
 10
0.10058663612
 20
0.16551484379
 10
0.10058663612
 20
0.16546484318
 10
0.10058663612
 20
0.16541484257
 10
0.10061163642
 20
0.16536484197
 10
0.10061163642
 20
0.16533984166
 10
0.10061163642
 20
0.16528984105
 10
0.10063663673
 20
0.16523984045
 10
0.10066163703
 20
0.16521484014
 10
0.10068663734
 20
0.16516483953
 10
0.10068663734
 20
0.16511483893
 10
0.10071163764
 20
0.16508983862
 10
0.10076163825
 20
0.16506483832
 10
0.10078663855
 20
0.16501483771
 10
0.10081163886
 20
0.16498983741
 10
0.10083663916
 20
0.1649648371
 10
0.1008866397699999
 20
0.1649398368000001
 10
0.10091164007
 20
0.16491483649
 10
0.10096164068
 20
0.1648898361899999
 10
0.10098664098
 20
0.16486483589
 10
0.1010081744556933
 20
0.16485406915
 10
0.10128664463
 20
0.16485406915
 10
0.10131164494
 20
0.16485406915
 10
0.1015758815443067
 20
0.16485406915
 10
0.10158664828
 20
0.16486483589
 10
0.10163664889
 20
0.16488983619
 10
0.10166164919
 20
0.16491483649
 10
0.1017116498
 20
0.1649398368
 10
0.1017366501
 20
0.1649648371000001
 10
0.1017866507100001
 20
0.16498983741
 10
0.10181165102
 20
0.1650148377099999
 10
0.10183665132
 20
0.16506483832
 10
0.10186165162
 20
0.16508983862
 10
0.1018866519300001
 20
0.16511483893
 10
0.10191165223
 20
0.16516483953
 10
0.10193665254
 20
0.16521484014
 10
0.10193665254
 20
0.16523984045
 10
0.10196165284
 20
0.16528984105
 10
0.10196165284
 20
0.16533984166
 10
0.10198665314
 20
0.16536484197
 10
0.10198665314
 20
0.16541484257
 10
0.10198665314
 20
0.16546484318
 10
0.10198665314
 20
0.16551484379
 97
        3
330
409
330
371
330
369
 92
       22
 72
     1
 73
     1
 93
        2
 10
0.10160639114
 20
0.16549932355
 42
-1.0
 10
0.10098251032
 20
0.16549932355
 42
-1.0
 97
        1
330
470
 92
        7
 72
     0
 73
     1
 93
       35
 10
0.10178665071
 20
0.1660148498699999
 10
0.1017366501000001
 20
0.16603985017
 10
0.1017116498
 20
0.16606485048
 10
0.10166164919
 20
0.1660898507799999
 10
0.1016366488900001
 20
0.1661148510899999
 10
0.1015866482799999
 20
0.1661398513900001
 10
0.10156164798
 20
0.16616485169
 10
0.10151164737
 20
0.16616485169
 10
0.10146164676
 20
0.166189852
 10
0.10143664646
 20
0.166189852
 10
0.1013866458499999
 20
0.166189852
 10
0.1013366452400001
 20
0.1662148523
 10
0.10128664463
 20
0.1662148523
 10
0.10123664402
 20
0.1662148523
 10
0.10121164372
 20
0.166189852
 10
0.10116164311
 20
0.166189852
 10
0.1011116425
 20
0.166189852
 10
0.1010866422
 20
0.16616485169
 10
0.10103664159
 20
0.16616485169
 10
0.10098664098
 20
0.1661398513900001
 10
0.10096164068
 20
0.16611485109
 10
0.10091164007
 20
0.16608985078
 10
0.10088663977
 20
0.16606485048
 10
0.10083663916
 20
0.16603985017
 10
0.10081163886
 20
0.16601484987
 10
0.10078663855
 20
0.16598984957
 10
0.10076163825
 20
0.16593984896
 10
0.1007116376399999
 20
0.16591484865
 10
0.10068663734
 20
0.16588984835
 10
0.10068663734
 20
0.16585408131
 10
0.1019045354464233
 20
0.16585408131
 10
0.1018866519299999
 20
0.1658898483500001
 10
0.10186165162
 20
0.16591484865
 10
0.10183665132
 20
0.16593984896
 10
0.10181165102
 20
0.16598984957
 97
        2
330
409
330
371
 92
        7
 72
     1
 73
     1
 93
       20
 10
0.11973610701
 20
0.1828562901527322
 42
0.0
 10
0.11973610701
 20
0.18286457361
 42
0.0
 10
0.119093786
 20
0.18286457361
 42
0.0
 10
0.11907956976
 20
0.18285035737
 42
0.0
 10
0.11905456945
 20
0.18280035676
 42
0.0
 10
0.11902956915
 20
0.18275035615
 42
0.0
 10
0.11902956915
 20
0.18272535585
 42
0.0
 10
0.11902956915
 20
0.18267535524
 42
0.0
 10
0.11900456884
 20
0.18262535463
 42
0.0
 10
0.11900456884
 20
0.18257535403
 42
0.0
 10
0.11900456884
 20
0.18255035372
 42
0.0
 10
0.11900456884
 20
0.18250035311
 42
0.0
 10
0.11900456884
 20
0.1824503525099999
 42
0.0
 10
0.11902956915
 20
0.1824003519
 42
0.0
 10
0.11902956915
 20
0.18237535159
 42
0.0
 10
0.11902956915
 20
0.1823253509899999
 42
0.0
 10
0.11905456945
 20
0.18227535038
 42
0.0
 10
0.11907587809
 20
0.18225404174
 42
0.0
 10
0.1195998390207414
 20
0.18225404174
 42
-0.3106580073516362
 10
0.11939952894
 20
0.18254532423
 42
-0.4375651871599878
 97
        5
330
9D
330
6D
330
B5
330
95
330
124
 92
        7
 72
     1
 73
     1
 93
       20
 10
0.12040458587
 20
0.18250035311
 42
0.0
 10
0.12040458587
 20
0.18255035372
 42
0.0
 10
0.12040458587
 20
0.18257535403
 42
0.0
 10
0.12040458587
 20
0.18262535463
 42
0.0
 10
0.12040458587
 20
0.1826753552400001
 42
0.0
 10
0.12037958556
 20
0.1827253558500001
 42
0.0
 10
0.12037958556
 20
0.18275035615
 42
0.0
 10
0.12035458526
 20
0.1828003567599999
 42
0.0
 10
0.12035458526
 20
0.18285035737
 42
0.0
 10
0.12034036902
 20
0.18286457361
 42
0.0
 10
0.11975057202
 20
0.18286457361
 42
0.0
 10
0.11975057202
 20
0.1828548041172138
 42
-0.3778628162066228
 10
0.12002340976
 20
0.18254532423
 42
-0.3106580073516362
 10
0.1198230996792586
 20
0.18225404174
 42
0.0
 10
0.12035458526
 20
0.18225404174
 42
0.0
 10
0.12035458526
 20
0.18227535038
 42
0.0
 10
0.12037958556
 20
0.18232535099
 42
0.0
 10
0.12037958556
 20
0.18237535159
 42
0.0
 10
0.12040458587
 20
0.1824003519
 42
0.0
 10
0.12040458587
 20
0.18245035251
 42
0.0
 97
        5
330
B5
330
75
330
95
330
124
330
9D
 92
        7
 72
     1
 73
     1
 93
       23
 10
0.12027958435
 20
0.18212534855
 42
0.0
 10
0.12030458465
 20
0.18215034886
 42
0.0
 10
0.12032958496
 20
0.18220034947
 42
0.0
 10
0.12035458526
 20
0.18225035007
 42
0.0
 10
0.12035458526
 20
0.18225404174
 42
0.0
 10
0.1198230996792586
 20
0.18225404174
 42
-0.0601446610813605
 10
0.11975057202
 20
0.1822358443427862
 42
0.0
 10
0.11975057202
 20
0.18211456449
 42
0.0
 10
0.11975057202
 20
0.18182534491
 42
0.0
 10
0.11975457796
 20
0.18182534491
 42
0.0
 10
0.11980457857
 20
0.18185034521
 42
0.0
 10
0.11985457918
 20
0.18185034521
 42
0.0
 10
0.11987957948
 20
0.18185034521
 42
0.0
 10
0.11992958009
 20
0.1818753455099999
 42
0.0
 10
0.1199795807
 20
0.1818753455099999
 42
0.0
 10
0.120004581
 20
0.18190034582
 42
0.0
 10
0.1200545816099999
 20
0.18192534612
 42
0.0
 10
0.12007958192
 20
0.18195034643
 42
0.0
 10
0.12012958252
 20
0.18197534673
 42
0.0
 10
0.1201545828299999
 20
0.18200034703
 42
0.0
 10
0.12020458344
 20
0.1820253473400001
 42
0.0
 10
0.12022958374
 20
0.18205034764
 42
0.0
 10
0.12025458404
 20
0.18210034825
 42
0.0
 97
        4
330
B5
330
9D
330
124
330
6D
 92
        7
 72
     1
 73
     1
 93
       23
 10
0.11973610701
 20
0.18211456449
 42
0.0
 10
0.11973610701
 20
0.1822343583072678
 42
-0.1117206431910187
 10
0.1195998390207414
 20
0.18225404174
 42
0.0
 10
0.119077723925
 20
0.18225404174
 42
0.0
 10
0.11910457006
 20
0.18220034947
 42
0.0
 10
0.11910457006
 20
0.18215034886
 42
0.0
 10
0.11912957036
 20
0.1821253485500001
 42
0.0
 10
0.11917957097
 20
0.18210034825
 42
0.0
 10
0.11920457128
 20
0.18205034764
 42
0.0
 10
0.11922957158
 20
0.18202534734
 42
0.0
 10
0.1192545718799999
 20
0.1820003470300001
 42
0.0
 10
0.1193045724900001
 20
0.1819753467299999
 42
0.0
 10
0.1193295728
 20
0.18195034643
 42
0.0
 10
0.1193795734
 20
0.18192534612
 42
0.0
 10
0.11940457371
 20
0.18190034582
 42
0.0
 10
0.11945457432
 20
0.18187534551
 42
0.0
 10
0.11950457492
 20
0.18187534551
 42
0.0
 10
0.11952957523
 20
0.18185034521
 42
0.0
 10
0.11957957584
 20
0.18185034521
 42
0.0
 10
0.11962957644
 20
0.18185034521
 42
0.0
 10
0.11965457675
 20
0.18182534491
 42
0.0
 10
0.11970457736
 20
0.18182534491
 42
0.0
 10
0.11973610701
 20
0.18182534491
 42
0.0
 97
        4
330
75
330
124
330
95
330
B5
 92
        7
 72
     0
 73
     1
 93
       21
 10
0.11973610701
 20
0.18325036223
 10
0.11970457736
 20
0.18325036223
 10
0.11965457675
 20
0.18325036223
 10
0.11962957644
 20
0.18322536193
 10
0.11957957584
 20
0.18322536193
 10
0.11952957523
 20
0.18322536193
 10
0.11950457492
 20
0.18320036163
 10
0.11945457432
 20
0.18320036163
 10
0.11940457371
 20
0.18317536132
 10
0.1193795734
 20
0.18315036102
 10
0.1193295727999999
 20
0.1831253607099999
 10
0.11930457249
 20
0.18310036041
 10
0.11925457188
 20
0.18307536011
 10
0.11922957158
 20
0.1830503598
 10
0.11920457128
 20
0.1830253595
 10
0.11917957097
 20
0.18297535889
 10
0.1191295703599999
 20
0.18295035859
 10
0.11910457006
 20
0.1829253582799999
 10
0.11910457006
 20
0.18286457361
 10
0.11973610701
 20
0.18286457361
 10
0.11973610701
 20
0.18300405086
 97
        3
330
B5
330
6D
330
9D
 92
        7
 72
     0
 73
     1
 93
       20
 10
0.12022958374
 20
0.1830253594999999
 10
0.12020458344
 20
0.1830503597999999
 10
0.1201545828300001
 20
0.18307536011
 10
0.1201295825199999
 20
0.1831003604100001
 10
0.1200795819200001
 20
0.18312536071
 10
0.1200545816100001
 20
0.18315036102
 10
0.120004581
 20
0.18317536132
 10
0.1199795807
 20
0.18320036163
 10
0.11992958009
 20
0.1832003616299999
 10
0.11987957948
 20
0.18322536193
 10
0.11985457918
 20
0.18322536193
 10
0.11980457857
 20
0.18322536193
 10
0.11975457796
 20
0.18325036223
 10
0.11975057202
 20
0.1832503622300001
 10
0.11975057202
 20
0.18300405086
 10
0.11975057202
 20
0.18286457361
 10
0.1203349769910784
 20
0.18286457361
 10
0.12030458465
 20
0.1829253582799999
 10
0.12027958435
 20
0.18295035859
 10
0.12025458404
 20
0.18297535889
 97
        3
330
B5
330
95
330
75
 92
        7
 72
     0
 73
     1
 93
       58
 10
0.13245200816
 20
0.1826783458898644
 10
0.13240065165
 20
0.18270402415
 10
0.13237565135
 20
0.1827290244499999
 10
0.13232565074
 20
0.18275402476
 10
0.13227565013
 20
0.18275402476
 10
0.13225064983
 20
0.18275402476
 10
0.1322006492199999
 20
0.18277902506
 10
0.13215064861
 20
0.18277902506
 10
0.132100648
 20
0.18277902506
 10
0.1320756477
 20
0.18277902506
 10
0.13202564709
 20
0.18277902506
 10
0.13197564648
 20
0.18275402476
 10
0.13192564587
 20
0.18275402476
 10
0.1319006455699999
 20
0.18275402476
 10
0.13185064496
 20
0.18272902445
 10
0.13180064435
 20
0.18270402415
 10
0.13177564405
 20
0.18267902384
 10
0.13172564344
 20
0.18267902384
 10
0.13170064314
 20
0.18265402354
 10
0.13165064253
 20
0.18260402293
 10
0.13162564223
 20
0.18257902263
 10
0.13160064192
 20
0.18255402232
 10
0.13157564162
 20
0.18252902202
 10
0.13155064131
 20
0.18247902141
 10
0.1315256410100001
 20
0.1824540211100001
 10
0.13150064071
 20
0.1824040205
 10
0.1314756404
 20
0.1823790202
 10
0.131451996
 20
0.1823317313905424
 10
0.131451996
 20
0.1818026573
 10
0.1314756403999999
 20
0.1817790129000001
 10
0.1315006407099999
 20
0.1817290122900002
 10
0.1315256410100001
 20
0.18170401199
 10
0.13155064131
 20
0.18165401138
 10
0.13157564162
 20
0.18162901108
 10
0.13160064192
 20
0.1816040107700001
 10
0.1316256422299999
 20
0.1815540101600001
 10
0.1316506425300001
 20
0.1815290098599999
 10
0.1317006431400001
 20
0.18150400956
 10
0.1317256434400001
 20
0.18147900925
 10
0.13177564405
 20
0.1814540089499999
 10
0.13180064435
 20
0.18142900864
 10
0.13185064496
 20
0.18142900864
 10
0.13190064557
 20
0.18140400834
 10
0.13192564587
 20
0.18140400834
 10
0.13197564648
 20
0.18137900804
 10
0.13202564709
 20
0.18137900804
 10
0.1320756477
 20
0.18137900804
 10
0.132100648
 20
0.18137900804
 10
0.13215064861
 20
0.18137900804
 10
0.13220064922
 20
0.18137900804
 10
0.13225064983
 20
0.18137900804
 10
0.13227565013
 20
0.1814040083400001
 10
0.13232565074
 20
0.18140400834
 10
0.13237565135
 20
0.18142900864
 10
0.1324006516499999
 20
0.18142900864
 10
0.13245065226
 20
0.18145400895
 10
0.13245200816
 20
0.18145536485
 10
0.13245200816
 20
0.18207901655
 97
        2
330
269
330
259
 92
       22
 72
     1
 73
     1
 93
        2
 10
0.13244793003
 20
0.18207905959
 42
-1.0
 10
0.13182404921
 20
0.18207905959
 42
-1.0
 97
        1
330
2D8
 92
        7
 72
     0
 73
     1
 93
       36
 10
0.13280065651
 20
0.18215401746
 10
0.13280065651
 20
0.18220401807
 10
0.13280065651
 20
0.18225401868
 10
0.13277565621
 20
0.18227901898
 10
0.13277565621
 20
0.18232901959
 10
0.1327506559099999
 20
0.1823790202
 10
0.1327256556
 20
0.1824040205
 10
0.1327006552999999
 20
0.1824540211099999
 10
0.1326756549900001
 20
0.18247902141
 10
0.13265065469
 20
0.18252902202
 10
0.13262565439
 20
0.18255402232
 10
0.1326006540799999
 20
0.18257902263
 10
0.13255065347
 20
0.18260402293
 10
0.13252565317
 20
0.18265402354
 10
0.13247565256
 20
0.18267902384
 10
0.13245200816
 20
0.18267902384
 10
0.13245200816
 20
0.18207901655
 10
0.13245200816
 20
0.18145536485
 10
0.13247565256
 20
0.1814790092500001
 10
0.13252565317
 20
0.18150400956
 10
0.1325506534700001
 20
0.18152900986
 10
0.13260065408
 20
0.18155401016
 10
0.13262565439
 20
0.18160401077
 10
0.13265065469
 20
0.18162901108
 10
0.13267565499
 20
0.18165401138
 10
0.1327006553
 20
0.1817040119900001
 10
0.1327256556
 20
0.18172901229
 10
0.13275065591
 20
0.1817790129
 10
0.13277565621
 20
0.1818040132
 10
0.13277565621
 20
0.18185401381
 10
0.13280065651
 20
0.18190401442
 10
0.13280065651
 20
0.18195401503
 10
0.13280065651
 20
0.18197901533
 10
0.13280065651
 20
0.18202901594
 10
0.13282565682
 20
0.18207901655
 10
0.13280065651
 20
0.1821290171599999
 97
        2
330
269
330
259
 92
       22
 72
     0
 73
     1
 93
        5
 10
0.13253758746
 20
0.18210401685
 10
0.13253758746
 20
0.18205401624
 10
0.13248758685
 20
0.18205401624
 10
0.13248758685
 20
0.18207901655
 10
0.13248758685
 20
0.18210401685
 97
        1
330
2D0
 75
     0
 76
     1
 47
0.0000404210026778
 98
       17
 10
0.1012755353311729
 20
0.174253505021473
 10
0.1008307390491555
 20
0.1749810832654848
 10
0.1008307390491555
 20
0.1749810832654848
 10
0.1008307390491555
 20
0.1749810832654848
 10
0.1007903033161069
 20
0.1655225683155535
 10
0.1007903033161069
 20
0.1655225683155535
 10
0.1012755353311729
 20
0.1660076203300799
 10
0.1192291327625459
 20
0.1825802319375094
 10
0.1201591610596292
 20
0.1824993897128661
 10
0.1199165453739446
 20
0.182095179922983
 10
0.1195121848249757
 20
0.1820547585884392
 10
0.1195121848249757
 20
0.1830248630619364
 10
0.1199974168400417
 20
0.1829844417273925
 10
0.1316429935696808
 20
0.1821356008130824
 10
0.1316429935696808
 20
0.1821356008130824
 10
0.1326538939765579
 20
0.1821356008130824
 10
0.1326538939765579
 20
0.1821356008130824
  0
ENDSEC
  0
SECTION
  2
OBJECTS
  0
DICTIONARY
  5
C
330
0
100
AcDbDictionary
281
     1
  3
ACAD_GROUP
350
D
  3
ACAD_LAYOUT
350
19
  3
ACAD_MLINESTYLE
350
16
  3
ACAD_PLOTSETTINGS
350
18
  3
ACAD_PLOTSTYLENAME
350
E
  3
AcDbVariableDictionary
350
478
  0
DICTIONARY
  5
D
102
{ACAD_REACTORS
330
C
102
}
330
C
100
AcDbDictionary
281
     1
  0
DICTIONARY
  5
19
102
{ACAD_REACTORS
330
C
102
}
330
C
100
AcDbDictionary
281
     1
  3
Layout1
350
1D
  3
Model
350
21
  0
DICTIONARY
  5
16
102
{ACAD_REACTORS
330
C
102
}
330
C
100
AcDbDictionary
281
     1
  3
Standard
350
17
  0
DICTIONARY
  5
18
102
{ACAD_REACTORS
330
C
102
}
330
C
100
AcDbDictionary
281
     1
  0
ACDBDICTIONARYWDFLT
  5
E
102
{ACAD_REACTORS
330
C
102
}
330
C
100
AcDbDictionary
281
     1
  3
Normal
350
F
100
AcDbDictionaryWithDefault
340
F
  0
DICTIONARY
  5
478
102
{ACAD_REACTORS
330
C
102
}
330
C
100
AcDbDictionary
281
     1
  3
DIMASSOC
350
9A3
  3
SORTENTS
350
479
  0
LAYOUT
  5
1D
102
{ACAD_REACTORS
330
19
102
}
330
19
100
AcDbPlotSettings
  1

  2
C:\PROGRAM FILES\ACAD2000\plotters\LaserJet 5L.pc3
  4

  6

 40
0.0
 41
0.0
 42
0.0
 43
0.0
 44
0.0
 45
0.0
 46
0.0
 47
0.0
 48
0.0
 49
0.0
140
0.0
141
0.0
142
1.0
143
1.0
 70
   688
 72
     0
 73
     0
 74
     5
  7

 75
    16
147
1.0
148
0.0
149
0.0
100
AcDbLayout
  1
Layout1
 70
     1
 71
     1
 10
0.0
 20
0.0
 11
12.0
 21
9.0
 12
0.0
 22
0.0
 32
0.0
 14
1.000000000000000E+20
 24
1.000000000000000E+20
 34
1.000000000000000E+20
 15
-1.000000000000000E+20
 25
-1.000000000000000E+20
 35
-1.000000000000000E+20
146
0.0
 13
0.0
 23
0.0
 33
0.0
 16
1.0
 26
0.0
 36
0.0
 17
0.0
 27
1.0
 37
0.0
 76
     0
330
1A
  0
LAYOUT
  5
21
102
{ACAD_REACTORS
330
19
102
}
330
19
100
AcDbPlotSettings
  1

  2
C:\PROGRAM FILES\ACAD2000\plotters\LaserJet 5L.pc3
  4

  6

 40
0.0
 41
0.0
 42
0.0
 43
0.0
 44
0.0
 45
0.0
 46
0.0
 47
0.0
 48
0.0
 49
0.0
140
0.0
141
0.0
142
1.0
143
1.0
 70
  1712
 72
     0
 73
     0
 74
     0
  7

 75
     0
147
1.0
148
0.0
149
0.0
100
AcDbLayout
  1
Model
 70
     1
 71
     0
 10
0.0
 20
0.0
 11
12.0
 21
9.0
 12
0.0
 22
0.0
 32
0.0
 14
0.0
 24
0.0
 34
0.0
 15
0.0
 25
0.0
 35
0.0
146
0.0
 13
0.0
 23
0.0
 33
0.0
 16
1.0
 26
0.0
 36
0.0
 17
0.0
 27
1.0
 37
0.0
 76
     0
330
1E
  0
MLINESTYLE
  5
17
102
{ACAD_REACTORS
330
16
102
}
330
16
100
AcDbMlineStyle
  2
STANDARD
 70
     0
  3

 62
   256
 51
90.0
 52
90.0
 71
     2
 49
0.5
 62
   256
  6
BYLAYER
 49
-0.5
 62
   256
  6
BYLAYER
  0
ACDBPLACEHOLDER
  5
F
102
{ACAD_REACTORS
330
E
102
}
330
E
  0
DICTIONARYVAR
  5
9A3
102
{ACAD_REACTORS
330
478
102
}
330
478
100
DictionaryVariables
280
     0
  1
1
  0
DICTIONARYVAR
  5
479
102
{ACAD_REACTORS
330
478
102
}
330
478
100
DictionaryVariables
280
     0
  1
96
  0
ENDSEC
  0
EOF
